» » »

Telefunken - Unknown Tabs (ver.1)

Artists:  A B C D E F G H I J K L M N O P Q R S T U V W X Y Z # 

Telefunken - Unknown Tabs (ver.1)

Unsigned
Rating:
0/5 (0 votes)

Hard to play? Try these video lessons and learn fast.
                Band Name-TeLeFuNkEn
Lead guitar-Chad
Drummer-Julien
Bassist-Mark

E]----------------------------------------------------------------------------
B]----------------------------------------------------------------------------
G]--9-9-9-9-9-9-9-9-----------------------------------------------------------
D]--9-9-9-9-9-9-9-9--10-10-10-10-10-10-10-10--5-5-5-5-5-5-5-5--7-7-7-7-7-7-7-7
A]--7-7-7-7-7-7-7-7--10-10-10-10-10-10-10-10--5-5-5-5-5-5-5-5--7-7-7-7-7-7-7-7
E]--------------------8--8--8--8--8--8--8--8--3-3-3-3-3-3-3-3--5-5-5-5-5-5-5-5
    PM........................................................................

E]-----------------------------------------------------------------------------------
B]-----------------------------------------------------------------------------------
G]-9-9-9-9-9-9-9-9-------------------------------------------------------------------
D]-9-9-9-9-9-9-9-9--10-10-10-10-10-10-10-10--5-5-5-5-5-5-5-5--12-12-12-12-12-12-12-12
A]-7-7-7-7-7-7-7-7--10-10-10-10-10-10-10-10--5-5-5-5-5-5-5-5--12-12-12-12-12-12-12-12
E]-------------------8--8--8--8--8--8--8--8--3-3-3-3-3-3-3-3--10-10-10-10-10-10-10-10
  PM.................................................................................

E]----------------------------------------------------------------------------
B]----------------------------------------------------------------------------
G]--9-9-9-9-9-9-9-9-----------------------------------------------------------
D]--9-9-9-9-9-9-9-9--10-10-10-10-10-10-10-10--5-5-5-5-5-5-5-5--7-7-7-7-7-7-7-7
A]--7-7-7-7-7-7-7-7--10-10-10-10-10-10-10-10--5-5-5-5-5-5-5-5--7-7-7-7-7-7-7-7
E]--------------------8--8--8--8--8--8--8--8--3-3-3-3-3-3-3-3--5-5-5-5-5-5-5-5


E]-----------------------------------------------------------------------------------
B]-----------------------------------------------------------------------------------
G]-9-9-9-9-9-9-9-9-------------------------------------------------------------------
D]-9-9-9-9-9-9-9-9--10-10-10-10-10-10-10-10--5-5-5-5-5-5-5-5--12-12-12-12-12-12-12-12
A]-7-7-7-7-7-7-7-7--10-10-10-10-10-10-10-10--5-5-5-5-5-5-5-5--12-12-12-12-12-12-12-12
E]-------------------8--8--8--8--8--8--8--8--3-3-3-3-3-3-3-3--10-10-10-10-10-10-10-10


E]--------------------------------------------------
B]--------------------------------------------------
G]--9-9-9----------------9-9-9---------------------- 
D]--9-9-9--5-5-5--7-7-7--9-9-9--5-5-5--9-9-9-9-9-9-9
A]--7-7-7--5-5-5--7-7-7--7-7-7--5-5-5--9-9-9-9-9-9-9
E]---------3-3-3--5-5-5---------3-3-3--7-7-7-7-7-7-7


E]----------------------------------------------------------------------------
B]----------------------------------------------------------------------------
G]--9-9-9-9-9-9-9-9-----------------------------------------------------------
D]--9-9-9-9-9-9-9-9--10-10-10-10-10-10-10-10--5-5-5-5-5-5-5-5--7-7-7-7-7-7-7-7
A]--7-7-7-7-7-7-7-7--10-10-10-10-10-10-10-10--5-5-5-5-5-5-5-5--7-7-7-7-7-7-7-7
E]--------------------8--8--8--8--8--8--8--8--3-3-3-3-3-3-3-3--5-5-5-5-5-5-5-5


E]-----------------------------------------------------------------------------------
B]-----------------------------------------------------------------------------------
G]-9-9-9-9-9-9-9-9-------------------------------------------------------------------
D]-9-9-9-9-9-9-9-9--10-10-10-10-10-10-10-10--5-5-5-5-5-5-5-5--12-12-12-12-12-12-12-12
A]-7-7-7-7-7-7-7-7--10-10-10-10-10-10-10-10--5-5-5-5-5-5-5-5--12-12-12-12-12-12-12-12
E]-------------------8--8--8--8--8--8--8--8--3-3-3-3-3-3-3-3--10-10-10-10-10-10-10-10


E]--------------------------------------------------
B]--------------------------------------------------
G]--9-9-9----------------9-9-9---------------------- 
D]--9-9-9--5-5-5--7-7-7--9-9-9--5-5-5--9-9-9-9-9-9-9
A]--7-7-7--5-5-5--7-7-7--7-7-7--5-5-5--9-9-9-9-9-9-9
E]---------3-3-3--5-5-5---------3-3-3--7-7-7-7-7-7-7


E]----------------------------------------------------------------------------
B]----------------------------------------------------------------------------
G]--9-9-9-9-9-9-9-9-----------------------------------------------------------
D]--9-9-9-9-9-9-9-9--10-10-10-10-10-10-10-10--5-5-5-5-5-5-5-5--7-7-7-7-7-7-7-7
A]--7-7-7-7-7-7-7-7--10-10-10-10-10-10-10-10--5-5-5-5-5-5-5-5--7-7-7-7-7-7-7-7
E]--------------------8--8--8--8--8--8--8--8--3-3-3-3-3-3-3-3--5-5-5-5-5-5-5-5


E]-----------------------------------------------------------------------------------
B]-----------------------------------------------------------------------------------
G]-9-9-9-9-9-9-9-9-------------------------------------------------------------------
D]-9-9-9-9-9-9-9-9--10-10-10-10-10-10-10-10--5-5-5-5-5-5-5-5--12-12-12-12-12-12-12-12
A]-7-7-7-7-7-7-7-7--10-10-10-10-10-10-10-10--5-5-5-5-5-5-5-5--12-12-12-12-12-12-12-12
E]-------------------8--8--8--8--8--8--8--8--3-3-3-3-3-3-3-3--10-10-10-10-10-10-10-10


E]----------------------------------------------------------------------------
B]----------------------------------------------------------------------------
G]--9-9-9-9-9-9-9-9-----------------------------------------------------------
D]--9-9-9-9-9-9-9-9--10-10-10-10-10-10-10-10--5-5-5-5-5-5-5-5--7-7-7-7-7-7-7-7
A]--7-7-7-7-7-7-7-7--10-10-10-10-10-10-10-10--5-5-5-5-5-5-5-5--7-7-7-7-7-7-7-7
E]--------------------8--8--8--8--8--8--8--8--3-3-3-3-3-3-3-3--5-5-5-5-5-5-5-5
    PM........................................................................

E]-----------------------------------------------------------------------------------
B]-----------------------------------------------------------------------------------
G]-9-9-9-9-9-9-9-9-------------------------------------------------------------------
D]-9-9-9-9-9-9-9-9--10-10-10-10-10-10-10-10--5-5-5-5-5-5-5-5--12-12-12-12-12-12-12-12
A]-7-7-7-7-7-7-7-7--10-10-10-10-10-10-10-10--5-5-5-5-5-5-5-5--12-12-12-12-12-12-12-12
E]-------------------8--8--8--8--8--8--8--8--3-3-3-3-3-3-3-3--10-10-10-10-10-10-10-10
  PM.................................................................................
            
Hard to play? Try these video lessons and learn fast. | Correct




comments powered by Disqus
↑ Back to top | Tablatures and chords are parodies/interpretations of the original songs. You may use it for private study, scholarship, research or language learning purposes only