» » »

Unsigned, System Flatline - Fair Weathered Friends Bass tabs (ver.1)

Artists:  A B C D E F G H I J K L M N O P Q R S T U V W X Y Z # 

System Flatline - Fair Weathered Friends Bass tabs (ver.1)

Unsigned Tabs
 Rating:
4/5 (4 votes)
System Flatline - Fair Weathered Friends lessons Tabs too difficult? Try these video lessons and learn fast
1
                h = hammer on   s = slap   p = pause

Introduction (Plays after guitar and drums)

G|-----------------------------------------------|
D|-----------------------------------------------|
A|-----------------------------------------------| x3
E|--0----0--0--5h-6h-5h-0---0--0--0--5h--6h--3---|
B|-----------------------------------------------|

G|-----------------------------------------------|
D|-----------------------------------------------|
A|-----------------------------------------------|
E|--0----0--0--5h-6h-5h-0---0--0--0--5h--6h--3p--|
B|-----------------------------------------------|

Chorus

G|------------------------------------------|
D|------------------------------------------|
A|------------------------------------------| x3
E|------------------------------------------|
B|--0----0--0--5h-6h-0-5h-6h-0-5h-6h-7-7-3--|

G|------------------------------------------|
D|------------------------------------------|
A|------------------------------------------|
E|------------------------------------------|
B|--0----0--0--5h-6h-0-5h---0-5h-6h-7s-3s---|

G|------------------------------------------|
D|------------------------------------------|
A|------------------------------------------| x3
E|--0----0--0--5h-6h-0-5h-6h-0-5h-6h-7-7-3--|
B|------------------------------------------|

G|---------------------------------------------|
D|---------------------------------------------|
A|---------------------------------------------|
E|--0----0--0--5h-6h-0-5h-6h-0-5h-6h-7p-7p-7p--|
B|---------------------------------------------|

Verse 1

G|-----------------------------------------------|
D|-----------------------------------------------|
A|-----------------------------------------------| x11
E|--0----0--0--5h-6h-5h-0---0--0--0--5h--6h--3---|
B|-----------------------------------------------|

G|-----------------------------------------------|
D|-----------------------------------------------|
A|-----------------------------------------------|
E|--0----0--0--5h-6h-5h-0---0--0--0--5h--6h--3p--|
B|-----------------------------------------------|

Chorus

G|------------------------------------------|
D|------------------------------------------|
A|------------------------------------------| x3
E|------------------------------------------|
B|--0----0--0--5h-6h-0-5h-6h-0-5h-6h-7-7-3--|

G|------------------------------------------|
D|------------------------------------------|
A|------------------------------------------|
E|------------------------------------------|
B|--0----0--0--5h-6h-0-5h---0-5h-6h-7s-3s---|

G|------------------------------------------|
D|------------------------------------------|
A|------------------------------------------| x3
E|--0----0--0--5h-6h-0-5h-6h-0-5h-6h-7-7-3--|
B|------------------------------------------|

G|---------------------------------------------|
D|---------------------------------------------|
A|---------------------------------------------|
E|--0----0--0--5h-6h-0-5h-6h-0-5h-6h-7p-7p-7p--|
B|---------------------------------------------|

Verse 2

G|-----------------------------------------------|
D|-----------------------------------------------|
A|-----------------------------------------------| x11
E|--0----0--0--5h-6h-5h-0---0--0--0--5h--6h--3---|
B|-----------------------------------------------|

G|-----------------------------------------------|
D|-----------------------------------------------|
A|-----------------------------------------------|
E|--0----0--0--5h-6h-5h-0---0--0--0--5h--6h--3p--|
B|-----------------------------------------------|

Chorus

G|------------------------------------------|
D|------------------------------------------|
A|------------------------------------------| x3
E|------------------------------------------|
B|--0----0--0--5h-6h-0-5h-6h-0-5h-6h-7-7-3--|

G|------------------------------------------|
D|------------------------------------------|
A|------------------------------------------|
E|------------------------------------------|
B|--0----0--0--5h-6h-0-5h---0-5h-6h-7s-3s---|

G|------------------------------------------|
D|------------------------------------------|
A|------------------------------------------| x3
E|--0----0--0--5h-6h-0-5h-6h-0-5h-6h-7-7-3--|
B|------------------------------------------|

G|---------------------------------------------|
D|---------------------------------------------|
A|---------------------------------------------|
E|--0----0--0--5h-6h-0-5h-6h-0-5h-6h-7p-7p-7p--|
B|---------------------------------------------|

Interlude

G|-----------------------------------------------|
D|-----------------------------------------------|
A|-----------------------------------------------| x15
E|--0----0--0--5h-6h-5h-0---0--0--0--5h--6h--3---|
B|-----------------------------------------------|

G|-----------------------------------------------|
D|-----------------------------------------------|
A|-----------------------------------------------|
E|--0----0--0--5h-6h-5h-0---0--0--0--5h--6h--3p--|
B|-----------------------------------------------|

Chorus

G|------------------------------------------|
D|------------------------------------------|
A|------------------------------------------| x3
E|------------------------------------------|
B|--0----0--0--5h-6h-0-5h-6h-0-5h-6h-7-7-3--|

G|------------------------------------------|
D|------------------------------------------|
A|------------------------------------------|
E|------------------------------------------|
B|--0----0--0--5h-6h-0-5h---0-5h-6h-7s-3s---|

G|------------------------------------------|
D|------------------------------------------|
A|------------------------------------------| x3
E|--0----0--0--5h-6h-0-5h-6h-0-5h-6h-7-7-3--|
B|------------------------------------------|

G|---------------------------------------------|
D|---------------------------------------------|
A|---------------------------------------------|
E|--0----0--0--5h-6h-0-5h-6h-0-5h-6h-7p-7p-7p--|
B|---------------------------------------------|

Chorus

G|------------------------------------------|
D|------------------------------------------|
A|------------------------------------------| x3
E|------------------------------------------|
B|--0----0--0--5h-6h-0-5h-6h-0-5h-6h-7-7-3--|

G|------------------------------------------|
D|------------------------------------------|
A|------------------------------------------|
E|------------------------------------------|
B|--0----0--0--5h-6h-0-5h---0-5h-6h-7s-3s---|

G|------------------------------------------|
D|------------------------------------------|
A|------------------------------------------| x3
E|--0----0--0--5h-6h-0-5h-6h-0-5h-6h-7-7-3--|
B|------------------------------------------|

G|---------------------------------------------|
D|---------------------------------------------|
A|---------------------------------------------|
E|--0----0--0--5h-6h-0-5h-6h-0-5h-6h-7p-7p-7p--|
B|---------------------------------------------|


Layout


Introduction
Chorus
Verse 1
Chorus
Verse 2
Chorus
Interlude
Chorus x2
            
Submit corrections

comments powered by Disqus
↑ Back to top | Unsigned Bass for System Flatline - Fair Weathered Friends. Lyrics for acoustic guitar and electric guitar. 1 Tablatures and chords are parodies/interpretations of the original songs. You may use it for private study, scholarship, research or language learning purposes only