» » »

Unsigned, Super Mario & Underground Bass tabs (ver.1)

Artists:  A B C D E F G H I J K L M N O P Q R S T U V W X Y Z # 

Super Mario & Underground Bass tabs (ver.1)

Unsigned Tabs
Rating:
0/5 (0 votes)
Super Mario & Underground lessons Tabs too difficult? Try these video lessons and learn fast
                (Theme)
Super Mario Theme and Underground Theme

G|------------0--------------------------0----------|
D|--2-2-2---2------------------------2-3---2-3---0--|
A|--------3---------3-----0-2-1-0--3-----------3---2| x2
E|---------------3----3-0---------------------------|

G|--0------------------------0----------5-5-5--0-----------------------------|
D|----3-2-0-2-------------0----3-2-0-2-----------3-2-0-2-------------0--1-0--|
A|-------------0-2-3--0-3---------------------------------0-2-3--0-3--------3|
E|---------------------------------------------------------------------------|

G|------------------------------------------------------------------------|
D|--2----------3-3------7-7-7-5-3-2--------2----------3-3------3-3-3-2-0--|
A|----3---------------2-------------3-0------3---------------2-----------3|
E|------3--4-5-----5--------------------3------3--4-5-----5---------------|

G|------------------------------------------------------------------------0---|
D|-------------0-2-------------------0-2-------------0-2--------2-2-2---2-----|
A|--3-3-3-3--3-----3-0----3-3-3-3--3------3-3-3-3--3-----3-0----------3-------|
E|---------------------3-------------------------------------3---------------3|
 
End of Super Mario Theme

Underground Theme

G|----5---2---3-----5---2---3----------------------------|
D|--------------------------------5---2---3-----5---2---3|
A|--3---0---1-----3---0---1------------------------------|
E|------------------------------3---0---1-----3---0---1--|

G|--------------------------------------------------|
D|-----------------------------------6-5-4----------|
A|--6-5-4-3--6--5--------4--3--7-6-5-------4--------|
E|-----------------4--3----------------------5-4-3-2|
            
Submit corrections

comments powered by Disqus
↑ Back to top | Unsigned Bass for Super Mario & Underground. Lyrics for acoustic guitar and electric guitar. Tablatures and chords are parodies/interpretations of the original songs. You may use it for private study, scholarship, research or language learning purposes only