» » »

Unsigned, Sunday Mourning - Changes Tabs (ver.1)

Artists:  A B C D E F G H I J K L M N O P Q R S T U V W X Y Z # 

Sunday Mourning - Changes Tabs (ver.1)

Unsigned Tabs
Rating:
0/5 (0 votes)
Sunday Mourning - Changes lessons Tabs too difficult? Try these video lessons and learn fast
                Sunday Mourning
Changes
standard tuning

Verse/
E ------------------------------------------------------------------
B ------------------------------------------------------------------
G ------0-----0---0-----0-------------------------------------------
D ----0-----0---0-----0-------0---0---------------------------------
A --3-----2---------0-------0---0--- repeat(x4)---------------------
E ------------------------3-----------------------------------------

Chorus/figure out the strumming patterns
E -3----3----2----3
B -3----3----3----3
G -0----0----2----0
D -0----2----0----0
A -2----3----X----2
E -3----X----X----3
            

comments powered by Disqus
↑ Back to top | Unsigned Tabs for Sunday Mourning - Changes. Lyrics for acoustic guitar and electric guitar. Tablatures and chords are parodies/interpretations of the original songs. You may use it for private study, scholarship, research or language learning purposes only