» » »

Suicide Method - Pesonal Hell Bass tabs (ver.1)

Artists:  A B C D E F G H I J K L M N O P Q R S T U V W X Y Z # 

Suicide Method - Pesonal Hell Bass tabs (ver.1)

Unsigned
Rating:
0/5 (0 votes)

Hard to play? Try these video lessons and learn fast.
                Suicide Method               “Personal Hell” Bass Tab By: Tony Virgilio. Tuning 5 String Bass AEADG, written by: Virgilio,Gibas,Lamanske	

Verse 1,5,& 6 4X                       
G |----------------| 
D |----------------| 
A |----------------|  
E |----------------| 
A |-0-33-2-0-3-2-0-|

Pre Chorus 4X
G |-----------------------------------|
D |-----------------------------------|
A |-----------------------------------|
E |-----------------------------------|       
A |-0-33-2-0-3-2-6-6-0-33-2-0-3-2-6-5-|

Verse 2
G |--------------------------------------------------------------------|
D |--------------------------------------------------------------------|
A |--------------------------------------------------------------------|
E |------------------------------------3~-----------------3~-----------|
A |-0-33-2-0-3-2-0--10/-0-33-2-0-3-2-0-----0-33-2-0-3-2-0-----0-33-2-0-3-2-0—-10/-|

Chorus 1 4X          Chorus 2 4X
G |----------------||----------------|
D |----------------||----------------|
A |--------------2-||----------5-4-2-|
E |-0-55-4-0-5-4---||-0-55-4-0-------|
A |----------------||----------------|

Verse 3
G |--------------------------------------------------------------------|
D |--------------------------------------------------------------------|
A |-------------------------------------0-33-2-0-3-2-0--10/-0-33-2-0-3-2-0-10/-|
E |-----------------3~-----------------3~------------------------------|
A |-0-33-2-0-3-2-0-----0-33-2-0-3-2-0----------------------------------|

Verse 4 4X
G |--------------------------------------------------------------------|
D |--------------------------------------------------------------------|
A |--------------------------------------------------------------------|
E ||3~|-------------3~-------------------------------------------------|
A |-0-33-2-0-3-2-0—---0-33-2-0-3-2-0—-8/-0-33-2-0-3-2-0—-8/--0-33-2-0-3-2-0-|






Interlude 9X
G |------------------------------------------------------------|
D |------------------------------------------------------------|
A |------------------------------------------------------------|
E |-------------3-------------1--------------------------------|
A |-5-4-3-5-4-3---5-4-3-5-4-3---5-4-3-5-4-3-1--5-4-3-5-4-3-7-7-|


Song Order
Verse 1 4X
Pre Chorus 4X
Verse 2
Pre Chorus 4X
Chorus 1 4X
Chorus 2 4X
Chorus 1 4X
Chrous 2 4X
Pre Chrous 2X
Verse 3
Pre Chrous 4X
Verse 4
Pre Chrous 2X
Interlude 9X
Chrous 1 4X
Chrous 2 4X
Chrous 1 4X
Chrous 2 4X
Pre Chrous 2X
Verse 5 4X
Pre Chrous 4X
Verse 6 4X
Pre Chrous 8X
            
Hard to play? Try these video lessons and learn fast. | Correct




comments powered by Disqus
↑ Back to top | Tablatures and chords are parodies/interpretations of the original songs. You may use it for private study, scholarship, research or language learning purposes only