» » »

Still Bust - Lost Bass tabs (ver.1)

Artists:  A B C D E F G H I J K L M N O P Q R S T U V W X Y Z # 

Still Bust - Lost Bass tabs (ver.1)

Unsigned
Rating:
0/5 (0 votes)

Hard to play? Try these video lessons and learn fast.
                Position: Guitarist/vocals

Another song by Still Bust! The first song on our first ever demo! Go us!

VERSE
G|--------------------------------|
D|--------------------------------|
A|--------3-3-3-3---------5-5-5-5-|
E|0-0-0-0---------3-3-3-3---------|

BRIDGE
G|--------------------------------|
D|--------------------------------|
A|7-7-7-7-3-3-3-3-5-5-5-5-2-2-5-5-|
E|--------------------------------|

CHORUS                               End Chorus 
G|--------------------------------|  |--------|
D|----------------5-5-5-5---------|  |--------|
A|7-7-7-7-3-3-3-3---------5-5-5-5-|  |7-------|
E|--------------------------------|  |--8-7-5-|

BREAKDOWN PT 2
G|--------------------------------|
D|--------------------------------|
A|3-3-3-3-5-5-5-5-7-7-7-5-7-7-7-5-|
E|--------------------------------|

BREAKDOWN PT 3
G|--------------------------------|
D|----------------5-5-4-4-2-2-2-2-|
A|3-3-3-3-5-5-5-5-----------------|
E|--------------------------------|

BREAKDOWN PT 4
G|--------------------------------|
D|--------------------------------|
A|--------3---------------5-------|
E|0---------------3---------------|

END
G|--------------------------|
D|--------------------------|
A|7-7-7-8-7-7-7-8-7-7-7-7-\-|
E|--------------------------|

Order

VERSE x 8
BRIDGE x 2
VERSE x 4
CHORUS x 2 
End Chorus
VERSE x 6
CHORUS x 2
End Chorus
Breakdown pt 1 (Guitar only)
BREAKDOWN PT 2 x 2
BREAKDOWN PT 3 x 1
BREAKDOWN PT 2 x 1
BREAKDOWN PT 4 x 2
VERSE x 4
CHORUS x 3
END x 1

End

There we go. Thats it all i think. Enjoy
            
Hard to play? Try these video lessons and learn fast. | Correct




comments powered by Disqus
↑ Back to top | Tablatures and chords are parodies/interpretations of the original songs. You may use it for private study, scholarship, research or language learning purposes only