>
 >
Stereo Ad - Alone

Stereo Ad - Alone Bass Tabs

Unsigned - Stereo Ad - Alone chords, tabs, tablatures, lyrics

Guitar lessons | Add/correct | Request | Top 50 tabs Artists:  A B C D E F G H I J K L M N O P Q R S T U V W X Y Z 0-9

Stereo Ad - Alone Bass Tabs – Unsigned

CD, Sheet music, Poster

Do you like Stereo Ad - Alone? Share with your friends now
Bass Tabs
Intro (Rest for 2 bars)

|-----------------------------------------------------------------|
|-----------------------------------------------------------------|
|-5-------------5-------------------------------------------------|
|-----------------3-------------3-0-------------0-5-------------5-|

|-----------------------------------------------------------------| x6
|-----------------------------------------------------------------|
|-5-5-5-5-5-5-5-5-------------------------------------------------|
|-----------------3-3-3-3-3-3-3-3-0-0-0-0-0-0-0-0-5-5-5-5-5-5-5-5-|

Verse 1

|-----------------------------------------------------------------| x4
|-----------------------------------------------------------------|
|-5-5-5-5-5-5-5-5-----------------3-3-3-3-3-3-3-3-----------------|
|-----------------5-5-5-5-5-5-5-5-----------------3-3-5-5-3-3-5-5-|

Chorus 1

|-----------------------------------------------------------------| x4
|-----------------------------------------------------------------|
|-5-5-5-5-5-5-5-5-------------------------------------------------|
|-----------------3-3-3-3-3-3-3-3-0-0-0-0-0-0-0-0-5-5-5-5-5-5-5-5-|

Verse 2

|-----------------------------------------------------------------| x4
|-----------------------------------------------------------------|
|-5-5-5-5-5-5-5-5-----------------3-3-3-3-3-3-3-3-----------------|
|-----------------5-5-5-5-5-5-5-5-----------------3-3-5-5-3-3-5-5-|

Chorus 2

|-----------------------------------------------------------------| x4
|-----------------------------------------------------------------|
|-5-5-5-5-5-5-5-5-------------------------------------------------|
|-----------------3-3-3-3-3-3-3-3-0-0-0-0-0-0-0-0-5-5-5-5-5-5-5-5-|

Drum Solo

|-----------------------------------------------------------------| x2
|-----------------------------------------------------------------|
|-5-5-5-5-5-5-5-5-------------------------------------------------|
|-----------------3-3-3-3-3-3-3-3-0-0-0-0-0-0-0-0-5-5-5-5-5-5-5-5-|

Post Solo and Chorus 3

|-----------------------------------------------------------------| x6
|-----------------------------------------------------------------|
|-5-5-5-5-5-5-5-5-------------------------------------------------|
|-----------------3-3-3-3-3-3-3-3-0-0-0-0-0-0-0-0-5-5-5-5-5-5-5-5-|





Comments


Popular Unsigned tabs & chords
Attack Of The Repertoire Bass Tabs
Bloody Battle - Blood On Your Face Bass Tabs
Caution 8e8 - What You Do Bass Tabs
Juvenile Plague - Done In A Day Bass Tabs
The Average - Total Disorder Bass Tabs
Bgm- Red Letter Days Tabs
Bliss-The Cure Tabs
Deathstruction- For You Tabs
F.A.T.H - Drip Tabs
Full Nelson - Not Content Tabs


Song lyrics



↑ Back to top | Tablatures and chords are parodies/interpretations of the original songs. You may use it for private study, scholarship, research or language learning purposes only
© 2014 AZChords.com Contact us | Privacy policy | DMCA | Add/correct tabs | Request tabs | Top 50 tabs