» » »

Sound Clinic - New Song Bass tabs (ver.1)

Artists:  A B C D E F G H I J K L M N O P Q R S T U V W X Y Z # 

Sound Clinic - New Song Bass tabs (ver.1)

Unsigned
Rating:
0/5 (0 votes)

Hard to play? Try these video lessons and learn fast.
                -----------5----------------5------------------5-------------------------
-----oh5-7---7-5-7-5---oh5-7--7-5-7-5----oh5-7--7-5-7-5---oh5-7----------
-00-----------------00----------------00----------------00---------------
This is the main chorus, played all the way through twice
Verse-
---------------------------------
---1-3-5-3-5-3-1---1-3-5-3-5-3-1-
-3---------------3---------------
---------------------------------(Play this 3 times then switch to this-

--1-3-5-3-5-3-1--1-3-5-3-5-3-1-
-3--------------3--------------
-------------------------------
------------------------------- then switch back to this-

-------------------------------
--1-3-5-3-5-3-1--1-3-5-3-5-3-1-
-3--------------3--------------
-------------------------------
                -end of verse, back to chorus
            
Hard to play? Try these video lessons and learn fast. | Correct




comments powered by Disqus
↑ Back to top | Tablatures and chords are parodies/interpretations of the original songs. You may use it for private study, scholarship, research or language learning purposes only