» » »

Unsigned, Smcg - Dull Boy Highway Tabs (ver.1)

Artists:  A B C D E F G H I J K L M N O P Q R S T U V W X Y Z # 

Smcg - Dull Boy Highway Tabs (ver.1)

Unsigned Tabs
Rating:
0/5 (0 votes)
Smcg - Dull Boy Highway lessons Tabs too difficult? Try these video lessons and learn fast
                --= DULL BOY HIGHWAY =--

The band name is Slightly Miffed Closet Gnomes but it will probably be 
changed soon. You can also find our cover of green day - brat called 
'moley's optic dilemma' on this site

this is a cool song and here is the tab. (it was written by noff on 
work experience) FOR BASS TAB SEE BASS TABS!

intro (ANDY'S GUITAR)
e----------------------------------
B----------------------------------
G----------------------------------
D--7-7-7---------------------------
A--7-7-7---X4-then pause for noff--
E--4-5-0--------and then once more-

intro (NOFF'S GUITAR) after andy's intro is played twice, join in
e----------------------------------------
B----------------------------------------
G-----13---------14-------9-----9--------
D---13--13-----14--14----9-9---9-9-------
A-11------11-12------12-7---7-7---7--X4-- on 3rd time only NOFF'S GUITAR
E----------------------------------------       PLAYS  


pre-verse (ANDY'S GUITAR)
e----------------------------------
B----------------------------------
G----------------------------------
D--9-9-9---2-----------------------
A--9-9-9---2-let ring--------------
E--7-7-7---0-----------------------

JIM'S BASS INTERLUDE

pre-verse pt 2 (BOTH GUITARS)
e----------------------------------
B----------------------------------
G---7-7-7-7-7----------------------
D-7-7-7-7-7-7-7-5-5-5-5-5----------
A-7-5-5-5-5-5-7-5-5-5-5-5---X2-----
E-5-----------5-3-3-3-3-3----------

verse (NOFF'S GUITAR) 
e---------------------------------------
B----------------------play each--------
G----7---7---------------chord----------
D-7--7-5-7-5-1-5-3-5----with an --------
A-7--5-5-5-5-1-5-3-5---accent at change-
E-5----3---3-3-3-1-3--------------------
    *----------------
    pm

BOTH GUITARS PLAY SAME THING WITH OUT PALM MUTING AFTER
THE ABOVE IS PLAYED TWICE

pre-chorus (BOTH GUITARS)
e-----------------
B-----------------
G--5-5-5-5-5-5----
D--5-5-5-5-5-5-X4-
A--3-3-3-5-5-5----
E-----------------

chorus (BOTH GUITARS)
e------------------------
B------------------------
G--7--2--4---------------
D--7--2--4--5----X2------
A--5--0--2--5------------
E-----------3------------

then play pre-verse pt 2
verse x 1
pre-chorus
chorus

then play intros in same way as before and pre-verse pt 1

then bass interlude again
bridge is palm muted 'a' chord over bass and everything stops
on 'On The Highway'

pre-verse pt 2
verse un palm-muted without lyrics through once
pre-chorus
chorus x 2
end on d chord to bass finish (interlude riff)

lyrics
------
verse
-----
Watching the thin white lines slipping past my wheels
and the hip cool trendies in their automobiles
Reaching 90mph and with fuel to burn
I'm on 90mph and i'll never learn.

I've been driving now for 22 hours or so
my eyes are getting droopy and i've nowhere to go
So i'll carry on driving til i reach the end
and i'll carry on driving cos i'm willin to offend.

pre-chorus
----------
How many times have you lived your life
Better make it something or just go for a drive
It's not your own reflection, been like this since i's 5
Betray your own emotions and get out and survive

chorus
------
cos none can tell you who you are
it's not so hard to see
please try to be like me

so live your life and make it worth your while
there's so much more to do 
than what's honest and true

verse
-----
So i'll carry on driving across the land of the free
and i'll stop wondering 'bout where i really should be
Why should i stop driving at the end of the line?
why should i stop driving, it's only quarter to five.

bridge
------
dullboy highway
dullboy listen to me
dullboy stand in the way
dullboy on the highway

thank you for your time!
enjoy
            

comments powered by Disqus
↑ Back to top | Unsigned Tabs for Smcg - Dull Boy Highway. Lyrics for acoustic guitar and electric guitar. Tablatures and chords are parodies/interpretations of the original songs. You may use it for private study, scholarship, research or language learning purposes only