» » »

Six Strings Shorter - Heaven Or Hell Tabs (ver.1)

Artists:  A B C D E F G H I J K L M N O P Q R S T U V W X Y Z # 

Six Strings Shorter - Heaven Or Hell Tabs (ver.1)

Unsigned
Rating:
0/5 (0 votes)

Hard to play? Try these video lessons and learn fast.
                Tuning: EADGBE
     Speed:Slow, Except the Intro
     Style: This is kinda soft music played with Accoustic, u 
      can try with a dist. with it but i cant promise a good song 
         with it.
       Order:Intro, still intro, verse.1, chorus, verse.2, chorus. end!
            

   



     Intro         2x               2x
  E|--------------------------|-----------------------------|
  B|--------------------------|-----------------------------|
  G|-------11------ ------11--|-----9-0----------------9-0--|
  D|---13-0--12-0-----13-0--12|-0-10----9-10-9 10-0-10----9-| 
  A|-12----------11-12--------|-----------------------------|
  E|--------------------------|-----------------------------|

 
    Still intro    2x        
  E|--------------------------|
  B|--------------------------|
  G|-7-0-9-0--------7-0-9-0---|
  D|---------7-9-7-9-------9--| 
  A|------------------------7-|
  E|--------------------------|
    
Verse.1
A     E    C        A       Em     F
  I am empty inside, I wanna burst into crye.
    A       E      G           D  
  Why wont anybody help meeeee
   A     E   C      A    Em     F
  I am near dying, I am Almost dead
   A         E   C        Em        F 
  Walking between lines, Heaven and hell
Chorus. 
  D    G    Am    D       G        Em 
  I see darkness, I see light from the sky
   D            G        D         G      F  
  What should i choose, Which is the right way
     D      G        D       G       F                      Em
  Heaven or hell, Does it matter...anymore, you aint here anymore 
Verse.2  
     A                    G       C
  Its 6 in the morning, Im waiting for you
          A              G            F    
  Then I realise youre not coming home no more
        B           A         B    A     G   D  
  Im so lonely i could die, Die...die...die 

   Copyright of Nikemans Production....Plz distribute freely but dont claim
    It as yours! Made by Authorisation By The band Six Strings Shorter
            
Hard to play? Try these video lessons and learn fast. | Correct




comments powered by Disqus
↑ Back to top | Tablatures and chords are parodies/interpretations of the original songs. You may use it for private study, scholarship, research or language learning purposes only