» » »

Unsigned, Sixdaystoyesterday - Sacred Ground Bass tabs (ver.1)

Artists:  A B C D E F G H I J K L M N O P Q R S T U V W X Y Z # 

Sixdaystoyesterday - Sacred Ground Bass tabs (ver.1)

Unsigned Tabs
 Rating:
4/5 (4 votes)
Sixdaystoyesterday - Sacred Ground lessons Tabs too difficult? Try these video lessons and learn fast
                SixDaysToYesterday
CD - its not on one yet
bassist - Paul Pichon
Tabbist - Paul Pichon
Song - Sacred ground

this song is just heavy metal stuff it gives me the shivers eveytime i play it

G------------------------------------------------
D------------------------------------------------
A---55555555--555555----55555555--55555577-------
D-00--------00------6500--------00---------------

G------------------------------------------------
D------------------------------------------------
A------5h7p5-------------5h7p5-------------------
D-0-00------006-006-0-00------006-006------------

G------------------------------------------------
D------------------------------------------------
A------------------------------------------------
D-0--006-006---0--006-006------------------------
for this you would need to hear the song to understand how it fits 
play the open stacato and wait inbetween the first open and the second 
as long as it would have taken you to play the hammer pulloff dealy

there are only a couple parts to the song and its not that complicated...but it is
very fast! so yeah i hope if anyone likes this that you will take a look at my other stuff
Paul Pichon
            
Submit corrections

comments powered by Disqus
↑ Back to top | Unsigned Bass for Sixdaystoyesterday - Sacred Ground. Lyrics for acoustic guitar and electric guitar. Tablatures and chords are parodies/interpretations of the original songs. You may use it for private study, scholarship, research or language learning purposes only