» » »

Unsigned, Sixdaystoyesterday - Beautiful Explosion Bass tabs (ver.1)

Artists:  A B C D E F G H I J K L M N O P Q R S T U V W X Y Z # 

Sixdaystoyesterday - Beautiful Explosion Bass tabs (ver.1)

Unsigned Tabs
 Rating:
4/5 (4 votes)
Sixdaystoyesterday - Beautiful Explosion lessons Tabs too difficult? Try these video lessons and learn fast
                SixDaysToYesterday
Learn The Words Tell More People (EP)
Beautiful Explosion
Bassist-Paul Pichon
Song - Beautiful Explosion

Oh just a note this is like my favorite song every to play because i made it all up and i have kind of 
a little solo esques thing at the beggining and near the end...so have fun 

x - muted
* # * - tap harmonic (but you can play it normal)and if you do use the harmonic then bend it up and down
 - hold not just listen for timing mostly on everything...

Intro/Verse
G-----------------------------------------------------------------------------------
D-------------8----------------------10-8-------------------8----------------8887---
A--------7-10---10p8p7h8-----------7------*8*----------7-10---10p8p7h8---8888----87-
D-00-0x0------------------00--0x0--------------00--0x0------------------------------
 the intro can be slapped for easy harmonic^access

G-----------------------------------------------------------------------------------
D-----------------------------------------------------------------------------------
A-----------------------------------------------------------------------------------
D--00-00--88-77--1212-1010-121091097976788-778757535313-----------------------------
                twelve and ten
G-----------------------------------------------------------------------------------
D----------0-0-----------3-3-----------7/8\7-------781087---------------------------
A----------------------------------------------7810------1087-----------------------
D0000000000-0--3333333333-3--5555555555------00--------------1087-------------------

G-----------------------------------------------------------------------------------
D-----------------------------0-----------3-----------5-------7--78108787-----------
A----------------------------0-0---------3-3---------5-5-07810-10--------1087-------
D-0>-3>-5>-8>108753-000075320---333375323---555575325-------------------------------

this is the first song we ever wrote together lol i really put a rather decent song together i think...
if you just want to mess around with it go ahead but if you want me to email you the song (i have a splitter) then
i will send it to you fo free on the copy i would send i don't play becasue i just rejoined the band but i will
give you the new copy when i rerecord it...so have fun with this please and questions or comments or anyhing at all
in mp3 format or something but maybe i can post them before hand and you can use some imgination
Paul Pichon
            
Submit corrections

comments powered by Disqus
↑ Back to top | Unsigned Bass for Sixdaystoyesterday - Beautiful Explosion. Lyrics for acoustic guitar and electric guitar. Tablatures and chords are parodies/interpretations of the original songs. You may use it for private study, scholarship, research or language learning purposes only