» » »

Simple Blues Tabs (ver.1)

Artists:  A B C D E F G H I J K L M N O P Q R S T U V W X Y Z # 

Simple Blues Tabs (ver.1)

Unsigned
Rating:
0/5 (0 votes)

Hard to play? Try these video lessons and learn fast.
                (Riff)


^ = Bend up or down or both.


Cool Blues Riff
Made it up while playing around on the guitar.


e---------4-------3-------2---------
B-----------------------------------
G--1-/-4-----4-3-----3-2-----2-1----
D-----------------------------------
A-----------------------------------
E-----------------------------------

Also Blues.
Sweet Finger Picking - The faster you go, the better it is.

e---------------------
B-----3----2----1-----
G----4----3----2----2^
D---3----2----1-------
A---------------------
E---------------------


                           Good Luck
                           Keep Playing
            
Hard to play? Try these video lessons and learn fast. | Correct




comments powered by Disqus
↑ Back to top | Tablatures and chords are parodies/interpretations of the original songs. You may use it for private study, scholarship, research or language learning purposes only