» » »

Sick Of It All Bass tabs (ver.1)

Artists:  A B C D E F G H I J K L M N O P Q R S T U V W X Y Z # 

Sick Of It All Bass tabs (ver.1)

Unsigned
Rating:
0/5 (0 votes)

Hard to play? Try these video lessons and learn fast.
                /=slide up
\=slide down
h=hammer on
b=bend
p=pull-off
*=let ring

Riff #1

F-----------------------------------------------------------------------------------------------------------
C-----------------------------------------------------------------------------------------------------------
G-----------------77776--66---000003-11-1----------------------------------------------------------
C---------0------------------------------------------------------------------------------------------------


Riff #2

F-----------------------------------------------------------------------------------------------------------
C-----------------------------------------------------------------------------------------------------------
G------------333---------------111111------------------------------------------------------------------
C---111111------------------------------------------0*-------------------------------------------------


Riff #3
F----------------------------------------------------------------------------------------------------------
C--------------------------9997---------------------12/10/12------------------------------------------
G--11111/777-------------------------------------------------------------0*---------------------------
C----------------------------------------------------------------------------------------------------------

Riff#4

F---------------------------------------------------------------------------------------
C---------------------------------------------------------------------------------------
G----1----3---5--55------------------------------------------------------------------
C 0----0----0------------111---0*----------------------------------------------------


Riff #5
C--------0*---------0*----------0*----------0*-----------0*

Stucture:
Riff 1,4 times
Riff 2,4 times
Riff 3,4 times
 Riff 4,4times
Riff 5, once
Outro let open C ring till dead
            
Hard to play? Try these video lessons and learn fast. | Correct




comments powered by Disqus
↑ Back to top | Tablatures and chords are parodies/interpretations of the original songs. You may use it for private study, scholarship, research or language learning purposes only