>
 >
Sheeracidcrisis - Fear

Sheeracidcrisis - Fear Guitar Tabs

Unsigned - Sheeracidcrisis - Fear chords, tabs, tablatures, lyrics

Guitar lessons | Add/correct | Request | Top 50 tabs Artists:  A B C D E F G H I J K L M N O P Q R S T U V W X Y Z 0-9

Sheeracidcrisis - Fear Guitar Tabs – Unsigned

CD, Sheet music, Poster

Do you like Sheeracidcrisis - Fear? Share with your friends now
Tabs
Tuning: A,D,C,G,f,a,d  (7-string tuned down 1 step)
-fast tempo 6/4
-key: * = palm mute
      / = slide [down]
      h = hammer on

This is one of my bands songs, i wrote it in early 2000. Sounds awesome live

*note*: numbers in succession; i.e. 33333333 are 3's. This represents trill picking. 


Riff a 
D]--------------------[
A]--------------------[
F]--6-6-6-6-6-6-6-6-6-[
C]-101010101010101010-[ these are 10's
G]--------------------[
D]--------------------[
A]--------------------[

Riff b
D]-----------------[
A]-----------------[
F]-----------------[
C]-----------------[
G]-----------------[
D]-333333333-32-2--[
A]-111111111-10-00-[
   *********  *

Riff c
D]---------------[
A]---------------[
F]---------------[
C]---------------[
G]---------------[
D]---------------[
A]-23232323/6^-0-[

Riff d
D]---------------------------|-------------------[
A]---------------------------|-------------------[
F]---------------------------|-------------------[
C]---------------------------|-----------------2-[
G]---------------------------|-----------------0-[
D]--------4---4--------------|--5--4-4-322-2-2-0-[
A]-22033-0233320-22222033333-|-03002-2-100-0-0-0-[
   *****   ***   ***********     **      ****

Riff e
D]------------------[
A]------------------[
F]------------------[
C]------------------[
G]------------------[
D]------------------[
A]-2-3-2-3-2-3-2-3--[

Riff fa
D]-----------------------------------[
A]-----------------------------------[
F]-----------------------------------[
C]-----------------------------------[
G]-----------------------------------[
D]-333333333333333322222222222222222-[
A]-333333333333333322222222222222222-[
   *********************************

Riff fB
D]-------------------------------------|----------|
A]-------------------------------------|----------|
F]-------------------------------------|----------|
C]-------------------------------------|----------|
G]-------------------------------------|----------|
D]-----------4-----------4/5-----------|-4-5/3-2--|
A]-333333-3332-333333-3332/3-333333-33-|-2-3/1-0--|    
   ****** ***  ****** ***    ****** **

Riff g
D]------------------------|-----------------[
A]------------------------|-----------------[
F]------------------------|-----------------[
C]------------------------|-----------------[
G]-------2----------------|-----------------[
D]-55-44-2----------------|-----------------[
A]-33-2200-113333111333-X-|-2-3-2-3-2-3-2-3-[
   ** **    *********** 

Riff h
D]--------------------------------[
A]--------------------------------[
F]--------------------------------[
C]--------------------------------[
G]--------------------------------[
D]--------------45--------------5-[
A]-5-6-5-65-65-6---56-5-6-56-5-6--[

Riff i
D]--------------------[
A]--------------------[
F]--------------------[
C]--------------------[
G]--------------------[
D]--------------------[
A]-2-3-2-3-2-33333333-[
              *******

Riff j
D]-----------------------[
A]-----------------------[
F]-----------------------[
C]-----------------------[
G]-----------------------[
D]-5----4---2------------[
A]-3----2---001133313333-[
              **********





Comments


Popular Unsigned tabs & chords
David Hasslehoff - Sex Song Bass Tabs
Golden Sex & Silver People - Bernok Song Bass Tabs
Ingrown - All I Wanna Do Bass Tabs
Notu - The One You Dont Like Bass Tabs
Super Mario Theme & Underground Theme Bass Tabs
Vertical Instinct - Chased Bass Tabs
"Who Will Love You" By. Savingyes Tabs
Fernands Band - Screeech Tabs
Kamarach - Odium Ore Tabs
Kill The Wise - Falling Straight Tabs


Song lyrics



↑ Back to top | Tablatures and chords are parodies/interpretations of the original songs. You may use it for private study, scholarship, research or language learning purposes only
© 2014 AZChords.com Contact us | Privacy policy | DMCA | Add/correct tabs | Request tabs | Top 50 tabs