>
 >
Sergio - Waste Away

Sergio - Waste Away Guitar Tabs

Unsigned - Sergio - Waste Away chords, tabs, tablatures, lyrics

Guitar lessons | Add/correct | Request | Top 50 tabs Artists:  A B C D E F G H I J K L M N O P Q R S T U V W X Y Z 0-9

Sergio - Waste Away Guitar Tabs – Unsigned

CD, Sheet music, Poster

Do you like Sergio - Waste Away? Share with your friends now
Tabs

This song is for 2 guitars in standard tuning. Bass and Drums can be easily added. Have fu with it. 

                              INTRO
Guitar 1 (play this moderatley fast while playing the A palm muted and letting the note E ring out with a little vibrato)   !at the exclamation point play really fast
E----------------------------------------!------------------------
B----------------------------------------!------------------------
G----------------------------------------!------------------------
D----2---2---2---2---2---2---2---2---2---2-3-2-0-2--0---0---------
A-000-000-000-000-000-000-000-000-000-000!------------3----3-2-3-2
E----------------------------------------!------------------------

Guitar 2 plays this at the same time in the same style
E----------------------------------------!------------------------
B----------------------------------------!------------------------
G----------------------------------------!------------------------
D----------------------------------------2-3-2-0-2--0---0---------
A----3---3---3---3---3---3---3---3---3---!------------3----3-2-3-2
E-111-111-111-111-111-111-111-111-111-111!------------------------

                                  MAIN MELODY
Guitar 1 and 2 (play this out loud and slightly distorted)
E------------------------------!-------------------------2X
B------------------------------!-------------------------2X
G------------------------------!-------------------------2X
D---------0--------2-0--------2!3-2-0-2-0--0---0---------2X
A-0-0-3-0----0-0-3------0-0-3--!-------------3----3-2-3-22X
E------------------------------!-------------------------2X

                                  FISRT VERSE
Guitar 1 ( play quick and palm muted)
E----------------------------------------------------------------
B----------------------------------------------------------------
G----------------------------------------------------------------
D--------------------------------------------------------00000000
A-00000000-33333333--------------------00000000-33333333---------
E-------------------11111111-33333333----------------------------

Guitar 2 ( play soft and in the background at the same time as guitar 1 does Verse)
E-0-------0-0-----0-1------1-3------3--0------0-0------0-2------2
B-2-------2-1-----1-1------1-3------3--2------2-1------1-3------3
G-2-------2-0-----0-2------2-4------4--2------2-0------0-2------2
D-2-------2-2-----2-3------3-5------5--2------2-2------2-0------0
A-0-------0-3-----3-3------3-5------5--0------0-3------3-0------0
E-X-------X-X-----X-1------1-3------3--X------X-X------X-X------X

                          CHORUS
Guitar 1 and 2 play out loud and slightly distorted
E-00000-0-00000-0-22222-0-11111 
B-22222-0-11111-0-33333-0-11111 
G-22222-0-00000-0-22222-0-22222 
D-22222-0-22222-0-00000-0-33333 (2 times)
A-00000-0-33333-0-00000-0-00000 
E-XXXXX-0-XXXXX-0-XXXXX-0-XXXXX 

Play the main melody

Play the first verse

Play the Chorus

                   POST CHORUS
Guitar 1 plays this alone and 2 take a break
E-0-0-0-0-2--2-2-3-2
B-2-0-1-0-3--3-3-3-3
G-2-0-0-0-2--2-2-2-2
D-2-0-2-0-0--0-0-0-0
A-0-0-3-0-0--0-0-0-0
E-X-0-X-0-X--X-X-X-X

                   SLOW PART
only played by Guitar 2 slowly and clean
E-0--0-0-0-0--0-0-0-2--2-2-0-1-1-0-0-0
B-2--2-2-0-1--1-1-0-3--3-3-0-1-1-0-0-2
G-2--2-2-0-0--0-0-0-2--2-2-0-2-2-1-1-2
D-2--2-2-0-2--2-2-0-0--0-0-0-3-3-2-2-2
A-0--0-0-0-3--3-3-0-0--0-0-0-0-0-2-2-0
E-X--X-X-0-X--X-X-0-X--X-X-0-X-X-0-0-X

PLay Chorus and near the end Guitar 2 will break off and play SOLO

                                       SOLO
E-------8-8-10--10--10-10-10--10-8-------8-8-12-10--10-10-10-!12-13-12-10-12--
B-10-10----------------------------10-10---------------------!----------------
G------------------------------------------------------------!----------------
D------------------------------------------------------------!----------------
E------------------------------------------------------------!----------------
A------------------------------------------------------------!----------------

E-10-8-10--8---8---------------------------------------------------0----------
B------------10--10--8888888-10--1010101010-8----------------------2----------
G---------------------------------------------9--99997-------------2----------
D------------------------------------------------------10-9-10-9-7-2----------
A------------------------------------------------------------------0----------
E-----------------------------------------------------------------------------





Comments


Popular Unsigned tabs & chords
7 Unwanted Days - Forgot Bass Tabs
Blank Tab Bass Tabs
Cold Fire - Prison Bass Tabs
Geoffrey Bungle - Imaginary Toilets Bass Tabs
Ingrown Identity - Driven Away Bass Tabs
Yuk Foo - March Of The Chickens Bass Tabs
2tones-Stink Like Fish Tabs
Circuit 69er-Waiting Tabs
Craig-A-Death: Lamb Of Satan Tabs
Drunkenrodeoclowns-Your Mom Is A Dyke Tabs


Song lyrics



↑ Back to top | Tablatures and chords are parodies/interpretations of the original songs. You may use it for private study, scholarship, research or language learning purposes only
© 2014 AZChords.com Contact us | Privacy policy | DMCA | Add/correct tabs | Request tabs | Top 50 tabs