» » »

Unsigned, Sense Of Stupidity - Our Song Tabs (ver.1)

Artists:  A B C D E F G H I J K L M N O P Q R S T U V W X Y Z # 

Sense Of Stupidity - Our Song Tabs (ver.1)

Unsigned Tabs
Rating:
0/5 (0 votes)
Sense Of Stupidity - Our Song lessons Tabs too difficult? Try these video lessons and learn fast
                Sense of Stupidity
"Our Song" 
written Eli Bridges, Tim Clough, Tom Robie

INTRO, VERSE RIFFS
e------------------------------------------------|
B------------------------------------------------|
G------------------------------------------------|
D--------------9--9-9-9---------------7--7-7-7---|
A-9--9--9-9-9--7--7-7-7--7--7--7-7-7--5--5-5-5---|
E-7--7--7-7-7------------5--5--5-5-5-------------|

CHORUS 
e------------------------------------------------------------------------------------|
B------------------------------------------------------------------------------------|
G------------------------------------------------------------------------------------|
D-------------------9--9-9-9-9--9--9-9-9-9--------------------9--9-9-9-9--9--9-9-9-9-|
A-7-7-7-7--9-9-9-9--7--7-7-7-7--7--7-7-7-7--7-7-7-7--9-9-9-9--7--7-7-7-7--7--7-7-7-7-|
E-5-5-5-5--7-7-7-7--------------------------5-5-5-5--7-7-7-7-------------------------|

Well, that's pretty much it. I tried to include the timing, but you should listen to
the song to get it correct. 

-Tim
            
Submit corrections

comments powered by Disqus
↑ Back to top | Unsigned Tabs for Sense Of Stupidity - Our Song. Lyrics for acoustic guitar and electric guitar. Tablatures and chords are parodies/interpretations of the original songs. You may use it for private study, scholarship, research or language learning purposes only