» » »

Unsigned, Scope - Punk Is The Way Foward Bass tabs (ver.1)

Artists:  A B C D E F G H I J K L M N O P Q R S T U V W X Y Z # 

Scope - Punk Is The Way Foward Bass tabs (ver.1)

Unsigned Tabs
 Rating:
4/5 (4 votes)
Scope - Punk Is The Way Foward lessons Tabs too difficult? Try these video lessons and learn fast
1
                Intro
G--------------------------------
D--------------------------------
A-----------------------3--5--6--
E----0--2--4--5--7--------------

Pre-Chorus
G--------------------------
D--------------------------
A----33---33---33----------
E----------------------7--

Verse
G----------------------
D----------------------
A---33---33------------
E---------------5---7--

Chorus
G-----------------------
D-----------------------
A-------3---------------
E----------7----5----4--

Bridge
G------------------------
D------------------------
A------------------------
E-----7----7----5----0---

Outro
G--------------------
D--------------------
A-----3--------------
E--------5---4---2---

Intro       X2
Pre-Chorus  X1
Verse       X4
Pre-Chorus  X1
Chorus      X4
Verse       X4
Pre-Chorus  X1
Chorus      X4
Bridge      X4
Intro       X2
Pre-Chorus  X1
Chorus      X6
Outro       X1
            
Submit corrections

comments powered by Disqus
↑ Back to top | Unsigned Bass for Scope - Punk Is The Way Foward. Lyrics for acoustic guitar and electric guitar. 1 Tablatures and chords are parodies/interpretations of the original songs. You may use it for private study, scholarship, research or language learning purposes only