» » »

Rysinth - Smash Body Bass tabs (ver.1)

Artists:  A B C D E F G H I J K L M N O P Q R S T U V W X Y Z # 

Rysinth - Smash Body Bass tabs (ver.1)

Unsigned
Rating:
0/5 (0 votes)

Hard to play? Try these video lessons and learn fast.
                Intro

G|---------------------------------------------------------------------| x 6 
D|---------------------------------------------------------------------|
A|---------------------------------------------------------------------|
D|-0---0-0-11---0-0-0-0-11---0-0-11---0---0-0-11---0-0-0-0-11---0-0-11-|

Verse

G|----------------------------------------------------------------| x 5
D|----------------------------------------------------------------|
A|----------------------------------------------------------------|
D|-3---3-3-3-3-3-2---2-2-2-1-1-1-1-3---3-3-3-3-3-2---2-2-2-1-1-1-1|

Intro Bit 

G|---------------------------------------------------------------------| x 4 
D|---------------------------------------------------------------------|
A|---------------------------------------------------------------------|
D|-0---0-0-11---0-0-0-0-11---0-0-11---0---0-0-11---0-0-0-0-11---0-0-11-|

Chorus

G|-----------------------------------------------------------------| x 4
D|-----------------------------------------------------------------|
A|-----------------------------------------------------------------|
D|-5---5-5-5-5-5-4---4-4-4-3-3-3-3-5---5-5-7-5-7-4---4-4-4-3-3-3-3-| 

Intro Bit 

G|---------------------------------------------------------------------| x 4 
D|---------------------------------------------------------------------|
A|---------------------------------------------------------------------|
D|-0---0-0-11---0-0-0-0-11---0-0-11---0---0-0-11---0-0-0-0-11---0-0-11-|

Verse

G|----------------------------------------------------------------| x 5
D|----------------------------------------------------------------|
A|----------------------------------------------------------------|
D|-3---3-3-3-3-3-2---2-2-2-1-1-1-1-3---3-3-3-3-3-2---2-2-2-1-1-1-1|

Intro Bit 

G|---------------------------------------------------------------------| x 4 
D|---------------------------------------------------------------------|
A|---------------------------------------------------------------------|
D|-0---0-0-11---0-0-0-0-11---0-0-11---0---0-0-11---0-0-0-0-11---0-0-11-|

Chorus

G|-----------------------------------------------------------------| x 4
D|-----------------------------------------------------------------|
A|-----------------------------------------------------------------|
D|-5---5-5-5-5-5-4---4-4-4-3-3-3-3-5---5-5-7-5-7-4---4-4-4-3-3-3-3-|

Intro Bit 

G|---------------------------------------------------------------------| as many times as necessary 
D|---------------------------------------------------------------------|
A|---------------------------------------------------------------------|
D|-0---0-0-11---0-0-0-0-11---0-0-11---0---0-0-11---0-0-0-0-11---0-0-11-|

Ending

G|--------------------------------------------------------------------------|
D|--------------------------------------------------------------------------|
A|--------------------------------------------------------------------------|
D|--0--------11-11-0---------11-11-0-----------11-11-0---------11-11-0------|
            
Hard to play? Try these video lessons and learn fast. | Correct




comments powered by Disqus
↑ Back to top | Tablatures and chords are parodies/interpretations of the original songs. You may use it for private study, scholarship, research or language learning purposes only