» » »

Unsigned, R.I.P. - We Got No Control Tabs (ver.1)

Artists:  A B C D E F G H I J K L M N O P Q R S T U V W X Y Z # 

R.I.P. - We Got No Control Tabs (ver.1)

Unsigned Tabs
 Rating:
4/5 (4 votes)
R.I.P. - We Got No Control lessons Tabs too difficult? Try these video lessons and learn fast
                This is a song from my band, it is a punk song.

R.I.P.-We Got No Control

Here we go!
Standard Tuning

Intro/Verse w/distortion

E|---------------------------------------------------|
B|---------------------------------------------------|
G|--------3-3------------5--5------------------------|
D|---3-x--3-3--x---5--x--5--5------------------------|
A|---3-x--1-1--x---5--x--3--3------------------------|
E|---1-x-------x---3--x------------------------------|

Chorus

E------------------------------------|
B------------------------------------|
G-5----------------------------------|
D-5—x4----5--------7--------5--------|
A-3-------5----x4--7----x4--5—x4-----|
E---------3--------5--------3--------|

Solo

E-----------------------------------------------|
B-----------------------------------------------|
G-----------------------------------------------|
D-----------------------------------------------|
A---222222222-----------------------------------|
E-------------3333333333-5555555555--000000000--|
P.M.----------------------------------------------------

Then repeat the chorus and repeat the verse 5times and then finish with the solo distored.

The whole song it's distorded.
            
Submit corrections

comments powered by Disqus
↑ Back to top | Unsigned Tabs for R.I.P. - We Got No Control. Lyrics for acoustic guitar and electric guitar. Tablatures and chords are parodies/interpretations of the original songs. You may use it for private study, scholarship, research or language learning purposes only