» » »

Unsigned, Ript - Suckablow Tabs (ver.1)

Artists:  A B C D E F G H I J K L M N O P Q R S T U V W X Y Z # 

Ript - Suckablow Tabs (ver.1)

Unsigned Tabs
 Rating:
4/5 (4 votes)
Ript - Suckablow lessons Tabs too difficult? Try these video lessons and learn fast
1
                Ript (unsigned) - Suckablow 

this is a great song.

standard tuninG

intro

E-----------------------------------------------------------------
B-----------------------------------------------------------------
G-----7-444-55----------------------------------------------------
D---5x7x444-55--------x4--------------------------------------------
A---5x5x222-33----------------------------------------------------
E---3x------------------------------------------------------------

verse

E------------------------------------------------------
B------------------------------------------------------
G-----44-55-77----44-55-77-----------------------------
D---5-44-55-77--5-44-55-77-------x6----------------------
A---5-22-33-55--5-22-33-55-----------------------------
E---3-----------3--------------------------------------

pre chorus + chorus:

E------------------------------------------------------
B------------------------------------------------------
G-----7x-444-55----------------------------------------
D---5x7x-444-55----------x8----------------------------
A---5x5x-222-33----------------------------------------
E---3x-------------------------------------------------

3rd verse

E--------------------------------------------------------------
B--------------------------------------------------------------
G---------777-4-44-55---------777-4-44-55-----------------------
D----5555-777-4-44-55---5555--777-4-44-55-----------------------
A----5555-555-2-22-33---5555--555-2-22-33-----------------------
E----3333---------------3333------------------------------------
\-----------------------------pm-------------------------------/

bridge - guitar 1

E-------------------------------------------------------
B-------------------------------------------------------
G-------------------------------------------------------
D-------------------------------------------------------
A-------55--22--33------55--22--33--------x12-----------
E---33--------------33----------------------------------

bridge - guitar 2

E-------------------------------------------------------
B-------------------------------------------------------
G-------77--44--55--------------------------------------
D---55--77--44--55-----x4-------------------------------
A---55--55--22--33--------------------------------------
E---33-----------------------------------pick scr*pe----

E------------------------------------------------------
B------------------------------------------------------
G-----7x--444--55--------------------------------------
D---5x7x--444--55--------------------------------------
A---5x5x--222--33--------------------------------------
E---3x-------------------------------------------------

chorus
intro x 8
            
Submit corrections

comments powered by Disqus
↑ Back to top | Unsigned Tabs for Ript - Suckablow. Lyrics for acoustic guitar and electric guitar. 1 Tablatures and chords are parodies/interpretations of the original songs. You may use it for private study, scholarship, research or language learning purposes only