>
 >
Rift- Up In Arms

Rift- Up In Arms Bass Tabs

Unsigned - Rift- Up In Arms chords, tabs, tablatures, lyrics

Guitar lessons | Add/correct | Request | Top 50 tabs Artists:  A B C D E F G H I J K L M N O P Q R S T U V W X Y Z 0-9

Rift- Up In Arms Bass Tabs – Unsigned

CD, Sheet music, Poster

Do you like Rift- Up In Arms? Share with your friends now
Bass Tabs
intro
G|----7---7---7---7---7---7---7-9-7----|
D|------------------7---7---7----------|
A|--8---8---8---8----------------------|
D|-------------------------------------|

G|----7---7---7---7---7---7-9-10---9-9~-10~--------|
D|------------------7---7--------7----------7~-----|
A|--8---8---8---8----------------------------------|
D|---------------------------------------------12\-|

G|----------------------------------|
D|----------------------------------|
A|----------------------------------|
D|-2-2-2-2-2-2-2-2--7-7-5-77-55-7-5-| X2

G|----------------------------------|
D|----------------------------------|
A|----------------------------------|
D|-3-3-3-3-3-3-3-3--7-7-5-77-55-7-5-| 

G|----------------------------------|
D|----------------------------------|
A|----------------------------------|
D|-2-2-2-2-2-2-2-2--7-7-5-77-55-7-5-|

verse
G|-----------------------------|
D|-----------------------------|
A|-----------------------------|
D|-0~--532~--653~--976~-9-6-7~-| X2

G|-------------------------------------------------------------------|
D|-------------------------------------------------------------------|
A|-------------------------------------------------------------------|
D|-0-0-0-00-00-00532-2-2-22-2-2-22653-3-3-33-3-3-33976-6-6-66-6-6-66-| 

G|---------------------------------------------------------------------|
D|---------------------------------------------------------------------|
A|---------------------------------------------------------------------|
D|-0-0-0-00-00-00532-2-2-22-2-2-22653-3-3-33-3-3-333\9-9-9-6-6-66-777--| 



chorus
G|----------------------------------------------------------------|
D|----------------------------------------------------------------|
A|-----------------3-3-3-3-3-3-2-1---------------------------7-7~-|
D|-2-2-2-2-2-2-2-2-----------------5-5-5-5-5-7-5-7-7-5-77-55------| X3

G|-----------------------------------------------------------------------------------|
D|-----------------------------------------------------------------------------------|
A|-----------------3-3-3-3-3-3-2-1---------------------------7-7---------------------|
D|-2-2-2-2-2-2-2-2-----------------5-5-5-5-5-7-5-7-7-5-77-55-----7-7-5-77-55-7-5-2~--|

slow bit
G|----7---7---7---7---7---7---7-9-7---|----7---7---7---7---7---7-9-10---9---|
D|------------------7---7---7---------|------------------7---7--------7-----| 
A|--8---8---8---8---------------------|--8---8---8---8----------------------|
D|------------------------------------|-------------------------------------| X3

G|----7---7---7---7---7---7---7-9-7---|----7---7---7---7---7---7-9-9-9-9---|
D|------------------7---7---7---------|------------------7---7---7-7-7-7---| 
A|--8---8---8---8---------------------|--8---8---8---8---------------------|
D|------------------------------------|------------------------------------|

verse
G|-----------------------------|
D|-----------------------------|
A|-----------------------------|
D|-0~--532~--653~--976~-9-6-7~-| X2

G|-------------------------------------------------------------------|
D|-------------------------------------------------------------------|
A|-------------------------------------------------------------------|
D|-0-0-0-00-00-00532-2-2-22-2-2-22653-3-3-33-3-3-33976-6-6-66-6-6-66-| 

G|---------------------------------------------------------------------|
D|---------------------------------------------------------------------|
A|---------------------------------------------------------------------|
D|-0-0-0-00-00-00532-2-2-22-2-2-22653-3-3-33-3-3-333\9-9-9-6-6-66-777--| 

chorus
G|----------------------------------------------------------------|
D|----------------------------------------------------------------|
A|-----------------3-3-3-3-3-3-2-1---------------------------7-7~-|
D|-2-2-2-2-2-2-2-2-----------------5-5-5-5-5-7-5-7-7-5-77-55------| X3

G|-----------------------------------------------------------------------------------|
D|-----------------------------------------------------------------------------------|
A|-----------------3-3-3-3-3-3-2-1---------------------------7-7---------------------|
D|-2-2-2-2-2-2-2-2-----------------5-5-5-5-5-7-5-7-7-5-77-55-----7-7-5-77-55-7-5-2~--|

chorus extention
G|-------------|---------------------------------------------------------------------|
D|-------------|-*----------------------------------------------------------------*--|
A|-------------|-*----------------------------------------------------------------*--|
D|-12-12-12-12-|---7-7-7-7-7-7-7-7-3-3-3-3-3-3-2-1-5-5-5-5-5-5-5-5-2-2-3-22-33-2-3---| X2

verse
G|-----------------------------|
D|-----------------------------|
A|-----------------------------|
D|-0~--532~--653~--976~-9-6-7~-| X2

G|-------------------------------------------------------------------|
D|-------------------------------------------------------------------|
A|-------------------------------------------------------------------|
D|-0-0-0-00-00-00532-2-2-22-2-2-22653-3-3-33-3-3-33976-6-6-66-6-6-66-| 

G|---------------------------------------------------------------------|
D|---------------------------------------------------------------------|
A|---------------------------------------------------------------------|
D|-0-0-0-00-00-00532-2-2-22-2-2-22653-3-3-33-3-3-333\9-9-9-6-6-66-777--| 

fill
G|-7---7---7-9-10---9-9-10---9-|
D|---7---7--------7--------7---| 
A|-----------------------------|
D|-----------------------------|

chorus
G|----------------------------------------------------------------|
D|----------------------------------------------------------------|
A|-----------------3-3-3-3-3-3-2-1---------------------------7-7~-|
D|-2-2-2-2-2-2-2-2-----------------5-5-5-5-5-7-5-7-7-5-77-55------| X3

G|-------------------------------------------------------------------------------|
D|-------------------------------------------------------------------------------|
A|-----------------3-3-3-3-3-3-2-1---------------------------7-7-------------7-7-|
D|-2-2-2-2-2-2-2-2-----------------5-5-5-5-5-7-5-7-7-5-77-55-----7-7-5-77-55-----|

G|----------------------------------------------------------------|
D|----------------------------------------------------------------|
A|-----------------3-3-3-3-3-3-2-1---------------------------7-7~-|
D|-2-2-2-2-2-2-2-2-----------------5-5-5-5-5-7-5-7-7-5-77-55------| X3

G|-----------------------------------------------------------------------------------|
D|-----------------------------------------------------------------------------------|
A|-----------------3-3-3-3-3-3-2-1---------------------------7-7---------------------|
D|-2-2-2-2-2-2-2-2-----------------5-5-5-5-5-7-5-7-7-5-77-55-----7-7-5-77-55-7-5-2~--|





Comments


Popular Unsigned tabs & chords
1-16 Bass Tabs
7 Unwanted Days - Breaking Free Bass Tabs
Suicide Method - Demonic Justice Bass Tabs
Aberrance Tabs
Barcode- Come Home Tabs
Blinded By Darkness - ~F.H.L.N.F...~ Tabs
Carpe Diem-Ballad Of The G-Funk Meltdown Tabs
Choking Hazard - "Joel" Tabs
Grimreaper Warlords- Grr Kings Tabs
Idiot Box - Shadows Tabs


Song lyrics



↑ Back to top | Tablatures and chords are parodies/interpretations of the original songs. You may use it for private study, scholarship, research or language learning purposes only
© 2014 AZChords.com Contact us | Privacy policy | DMCA | Add/correct tabs | Request tabs | Top 50 tabs