» » »

Rift- Merry Christmas Bass tabs (ver.1)

Artists:  A B C D E F G H I J K L M N O P Q R S T U V W X Y Z # 

Rift- Merry Christmas Bass tabs (ver.1)

Unsigned
Rating:
0/5 (0 votes)

Hard to play? Try these video lessons and learn fast.
                my band broke up so im puting all my tabs on the net, enjoy



(drop D)

no bass in intro 

(after scream) 

verse 

G|------------------------------------|
D|------------------------------------|
A|------------------------------------|
E|--0-0-2-0-3-0-------0-0-3^--0-0-3-2-| X3

G|--------------------------------------|
D|--------------------------------------|
A|--------------------------------------|
E|--0-0-2-0-3-0-------0-0-3^--0-0-4/10--| 

chorus 

G|----------------------------------|
D|----------------------------------|
A|----------------------------------|
E|--0-0-2-0-3-0-2-0-8-8-8-8-6-6-6-6-| X4

pre-verse

G|----------------------------------|
D|----------------------------------|
A|--8-8-8-8-8-8-8-8-6-6-6-6-6-6-6-6-|
E|----------------------------------|

verse 

chorus 

pre-verse

verse 

chorus 

intermission X4

G|-----------------------------------------------------------|
D|-----------------------------------------------------------|
A|-----------------------------------------------------------|
E|--7-7-7-7-7-7-7-7-9-9-9-9-9-9-9-9-11-11-11-11-11-11-11-11--|

G|------------------------------------------------|
D|------------------------------------------------|
A|------------------------------------------------|
E|--11/13--13p0--0--11-------11/13--13p0--0--11---|

verse X4

chorus X2.5 (miss off the 8's,6's at the end)

ending 

Slide the *** out of the strings then play various random chords,
just basically go crazy with it, no holds bared, by the time the song gets recorded i will have come up with some kinda order to this part, and remember make it sounds as *** as possible =P
            
Hard to play? Try these video lessons and learn fast. | Correct




comments powered by Disqus
↑ Back to top | Tablatures and chords are parodies/interpretations of the original songs. You may use it for private study, scholarship, research or language learning purposes only