» » »

Rift- Compelled To Write Bass tabs (ver.1)

Artists:  A B C D E F G H I J K L M N O P Q R S T U V W X Y Z # 

Rift- Compelled To Write Bass tabs (ver.1)

Unsigned
Rating:
0/5 (0 votes)

Hard to play? Try these video lessons and learn fast.
                my band broke up, so iv decided to post all my tabs on the net, enjoy



(drop D)
intro  (very quietly)
G|--5-----5-----5-----5-----7-----9-----9-----7---------------| 
D|----5-----5-----5-----5-----7-----9-----9-----7-------------|
A|------------------------------------------------------------|
E|------------------------------------------------------------| X3

G|--5-----5-----5-----5-----7-----9-----9-----7---------------| 
D|----0-----0-----0-----0-----0-----0-----0-----0-------------|
A|------------------------------------------------------------|
E|------------------------------------------------------------|


verse part1 

G|-----------------------------------|--------------------------------| 
D|-------------5-5------------7-7----|----------4-4/7-5-------6-6/9-7-| 
A|--55-5--55-5-----77-7--77-7--------|----2-2-2---------4-4-4---------| 
E|-----------------------------------|--------------------------------| X4

variations 

1
G|----------------------7----5--|
D|----------4-4/7-5--------7----|
A|----2-2-2---------------------|
E|------------------------------|

2
G|----------------------------------|
D|----------4-4/7-5-----------------|
A|----2-2-2---------4-4-4-4-4-4-4-4-|
E|----------------------------------|


verse part2

G|--------------7----5--|
D|---------3~------7----|
A|-5~--3~---------------|
E|----------------------| X2 

G|-----------------------------------------3---5-------------------|
D|---------------------------------3-3-3-3---3---3-5-5-5-5-7-7-7-7-|
A|-5-5-5-5-5-5-5-7-3-3-3-3-3-3-3-3---------------------------------|
E|-----------------------------------------------------------------| 

G|-------------------------------------3---5---3-------------------|
D|-----5---7-----------3---5-------3-3---3---3---3-5-5-5-5-7-7-7-7-|
A|-5-5---5---5-7-5-3-3---3---3-2-3---------------------------------|
E|-----------------------------------------------------------------|

chorus

G|---------------------|
D|---------------------|
A|---------------------|
E|--0-0-0--7-7-7--3/5--|  X3

G|-----------------------|
D|-----------------------|
A|-----------------------|
E|--7-7-7--4-4-4--2\1p0--|

verse part3 

G|----7--------5--------10-------7----5~-|
D|-------7~-------5~--------10~-----7----|
A|-5--------3--------8-------------------|
E|---------------------------------------| X3

G|----7--------5--------10-----------------------|
D|-------7~-------5~--------10~--7-7-7-7-7-7-7-7-|
A|-5--------3--------8---------------------------|
E|-----------------------------------------------|

bridge

rest

G|----------------|----------------|----------------|---------|
D|----------------|----------------|----------------|---------|
A|----------------|----------------|----------------|---------|
E|-0--00-0--0-0-0-|-0--00-0--0-0-0-|-0--00-0--0-0-0-|-0-0-0-0-|

G|-----------------------------------------------------------------|
D|-------------------------------------------------7-5-----7-5-----|
A|-----------------------------------------------------7-5-----7-5-|
E|-5-5-5-5-5-5-5-5-7-7-7-7-7-7-7-7-8-8-8-8-8-8-8-8-----------------|

G|---------------------------------7-7-7-7-7-7-7-7-10-10-10-10-9-9-9-9-|
D|-8-8-8-8-8-8-8-8-6-6-6-6-6-6-8-6-------------------------------------|
A|---------------------------------------------------------------------|
E|---------------------------------------------------------------------| X2
______________________________________________________________________________________________________________

ORDER

intro X2
verse part1 X4 (with variation 1 on the end)
verse part2 
verse part1 X2
chorus X2
verse part1 X2 (with variation 2 on the end)
verse part2 
verse part1 X2
chorus X2
verse part1 X2 (with variation 2 on the end)
verse part3 X2
verse part1 X2
chorus X2
bridge
verse part1 X2 
chorus
verse part1 X4 (with variation 1 on the 2nd, and variation 2 on the end)
end (D|------0~~| at the end of guitar riff)
            
Hard to play? Try these video lessons and learn fast. | Correct




comments powered by Disqus
↑ Back to top | Tablatures and chords are parodies/interpretations of the original songs. You may use it for private study, scholarship, research or language learning purposes only