» » »

Unsigned, Reckless Doubt - She Still Dont Know Tabs (ver.1)

Artists:  A B C D E F G H I J K L M N O P Q R S T U V W X Y Z # 

Reckless Doubt - She Still Dont Know Tabs (ver.1)

Unsigned Tabs
Rating:
0/5 (0 votes)
Reckless Doubt - She Still Dont Know lessons Tabs too difficult? Try these video lessons and learn fast
                This is a cool song!

Reckless Doubt/she still don’t know

^ = palm mute

Intro-(distortion)
E---------------------------
B---------------------------
G----3-2---3-2---3-2---3-2-0
D-3-----0-------------------  (x2)
A-------------3-----0-------
E---------------------------

Riff-(distortion)
E------------------------------------------------
B------------------------------------------------
G-3-3-3-3-3-3-3-3-2-2-2-2-2-2-2-2-0-0-0-0-0-0-0-0
D-3-3-3-3-3-3-3-3-3-3-3-3-3-3-3-3-3-3-3-3-3-3-3-3
A------------------------------------------------
E------------------------------------------------

E-----------------------------
B-----------------------------
G-----------------------------  
D-2-2-2-3-3-3-5-5-5-5-5-5-5-5- (x2)
A-3-3-3-3-3-3-3-3-3-3-3-3-3-3-
E-----------------------------

Pre-Verse
E---------------------------
B---------------------------
G----3-2---3-2---3-2---3-2-0
D-3-----0-------------------  (x2)
A-------------3-----0-------
E---------------------------

Verse- 
E-------------------------------------------------
B-------------------------------------------------
G-0-000000000-7-777777777-9-999999999-5-555555555- (x2)
D-0-000000000-7-777777777-9-999999999-5-555555555-
A-0-000000000-5-555555555-7-777777777-3-333333333-
E------------------------------------------------- 
    ^^^^^^^^^   ^^^^^^^^^   ^^^^^^^^^   ^^^^^^^^^

Chorus-
E--------------------------------------
B--------------------------------------
G-0-00-000-7-77-777-9-99-999-555555555- (x2)
D-0-00-000-7-77-777-9-99-999-555555555-
A-0-00-000-5-55-555-7-77-777-333333333-
E-------------------------------------- 
   
Solo- (distortion)
Intro-(distortion)
E---------------------------
B---------------------------
G----3-2---3-2---3-2---3-2-0
D-3-----0-------------------  (x2)
A-------------3-----0-------
E---------------------------

E------------------------------------------------
B------------------------------------------------
G-3-3-3-3-3-3-3-3-2-2-2-2-2-2-2-2-0-0-0-0-0-0-0-0
D-3-3-3-3-3-3-3-3-3-3-3-3-3-3-3-3-3-3-3-3-3-3-3-3
A------------------------------------------------
E------------------------------------------------

E------------------------------------------------------------
D------------------------------------------------------------
G-----------------------------3-3-3-3-3-3-3-3-2-2-2-2-2-2-2-2  
D-2-2-2-3-3-3-5-5-5-5-5-5-5-5-3-3-3-3-3-3-3-3-3-3-3-3-3-3-3-3
A-3-3-3-3-3-3-3-3-3-3-3-3-3-3--------------------------------
E------------------------------------------------------------

E----------------------------------------------------------
B----------------------------------------------------------
G-0-0-0-0-0-0-0-0------------------------------------------
D-3-3-3-3-3-3-3-3-2-2-2-2-2-2-2-2-3-3-3-3-3-3-3-3-3-3-3-3-3
A-----------------3-3-3-3-3-3-3-3-3-3-3-3-3-3-3-3-3-3-3-3-3
E----------------------------------------------------------

Order
Intro
Pre-verse
Verse
Pre-verse
Verse
Chorus
Verse
Chorus
Solo
Chorus
            
Submit corrections

comments powered by Disqus
↑ Back to top | Unsigned Tabs for Reckless Doubt - She Still Dont Know. Lyrics for acoustic guitar and electric guitar. Tablatures and chords are parodies/interpretations of the original songs. You may use it for private study, scholarship, research or language learning purposes only