» » »

Reason 2 Rival - Song Tabs (ver.1)

Artists:  A B C D E F G H I J K L M N O P Q R S T U V W X Y Z # 

Reason 2 Rival - Song Tabs (ver.1)

Unsigned
Rating:
0/5 (0 votes)

Hard to play? Try these video lessons and learn fast.
                
	~ = let ring


		*INTRO*
CLEAN X2

e|---------------------------------------------------------------------------|
B|---------------------------------------------------------------------------|
G|-4-4-4-4-4-4-4-------------------------------------------------------------| 
D|-4-4-4-4-4-4-4-4--4-4-4-4-4-4--6-6-6-6-6-6-6-4~~---------------------------|
A|-2-2-2-2-2-2-2-4--4-4-4-4-4-4--6-6-6-6-6-6-6-4~~---------------------------|
E|---------------2--2-2-2-2-2-2--4-4-4-4-4-4-4-2~~---------------------------|


		*DRUMS LEAD IN, FIRST NOTE ON CRASH*

DISTORTED X2

e|---------------------------------------------------------------------------|
B|---------------------------------------------------------------------------|
G|-4-4-4-4-4-4-4-------------------------------------------------------------|   
D|-4-4-4-4-4-4-4-4--4-4-4-4-4-4--6-6-6-6-6-6-6--4--4-4-4-4-4-4---------------|    
A|-2-2-2-2-2-2-2-4--4-4-4-4-4-4--6-6-6-6-6-6-6--4--4-4-4-4-4-4---------------|
E|---------------2--2-2-2-2-2-2--4-4-4-4-4-4-4--2--2-2-2-2-2-2---------------|


		*THE SLOW PRETTY PART!*

CLEAN

e|---------------------------------------------------------------------------------|
B|---------------------------------------------------------------------------------|
G|-----4~--4--------------------------------------4~--4----------------------------| 
D|---4---4-------4~--4------6~--6------4~--4----4---4--------4~--4------6~--6------|
A|-2-----------4---4------6---6------4---4----2------------4---4------6---6--------|
E|------------2---------4----------2---------------------2----------4---------4--2~|


		*SINGLE DRUM BEAT BEFORE START, FIRST NOTE ON CRASH*

DISTORTED X2

e|---------------------------------------------------------------------------|
B|---------------------------------------------------------------------------|
G|-4-4-4-4-4-4-4-------------------------------------------------------------|   
D|-4-4-4-4-4-4-4-4--4-4-4-4-4-4--6-6-6-6-6-6-6--4--4-4-4-4-4-4---------------|      
A|-2-2-2-2-2-2-2-4--4-4-4-4-4-4--6-6-6-6-6-6-6--4--4-4-4-4-4-4---------------|
E|---------------2--2-2-2-2-2-2--4-4-4-4-4-4-4--2--2-2-2-2-2-2---------------|
            
Hard to play? Try these video lessons and learn fast. | Correct




comments powered by Disqus
↑ Back to top | Tablatures and chords are parodies/interpretations of the original songs. You may use it for private study, scholarship, research or language learning purposes only