» » »

Unsigned, Pyria Nose Bleeding Tabs (ver.1)

Artists:  A B C D E F G H I J K L M N O P Q R S T U V W X Y Z # 

Pyria Nose Bleeding Tabs (ver.1)

Unsigned Tabs
 Rating:
4/5 (4 votes)
Pyria Nose    Bleeding lessons Tabs too difficult? Try these video lessons and learn fast
                this is a song i have made i hope it is good.
please rate it.its 

it sounds pretty cool


e|------------------------|------------------------|
h|------------------------|------------------------|
g|------------------------|------------------------|
d|-4--4-4-4-4--7--7-7-7-7-|-4--4-4-4-4--7--7-7-7-7-|
a|-2--2-2-2-2--5--5-5-5-5-|-2--2-2-2-2--5--5-5-5-5-|
e|-2--2-2-2-2--5--5-5-5-5-|-2--2-2-2-2--5--5-5-5-5-|


e|------------------------|-----------------------|
h|------------------------|-----------------------|
g|------------------------|-----------------------|
d|------------------------|-----------------------|
a|-4--4-4-4-4--7--7-7-7-7-|-4--4-4-4-4--7--7-7-7-7|
e|-2--2-2-2-2--5--5-5-5-5-|-2--2-2-2-2--5--5-5-5-5|


e|------------------------|------------------------|
h|------------------------|------------------------|
g|------------------------|------------------------|
d|-4--4-4-4-4--7--7-7-7-7-|-4--4-4-4-4--7--7-7-7-7-|
a|-2--2-2-2-2--5--5-5-5-5-|-2--2-2-2-2--5--5-5-5-5-|
e|-2--2-2-2-2--5--5-5-5-5-|-2--2-2-2-2--5--5-5-5-5-|


e|------------------------|-----------------------|
h|------------------------|-----------------------|
g|------------------------|-----------------------|
d|-6--6-6-6-6--9--9-9-9-9-|-6--6-6-6-6--9--9-9-9-9|
a|-4--4-4-4-4--7--7-7-7-7-|-4--4-4-4-4--7--7-7-7-7|
e|-4--4-4-4-4--7--7-7-7-7-|-4--4-4-4-4--7--7-7-7-7|


e|------------------------|-----------------------|
h|------------------------|-----------------------|
g|------------------------|-----------------------|
d|------------------------|-----------------------|
a|-6--6-6-6-6--9--9-9-9-9-|-6--6-6-6-6--9--9-9-9-9|
e|-4--4-4-4-4--7--7-7-7-7-|-4--4-4-4-4--7--7-7-7-7|


e|------------------------|-----------------------|
h|------------------------|-----------------------|
g|------------------------|-----------------------|
d|-6--6-6-6-6--9--9-9-9-9-|-6--6-6-6-6--9--9-9-9-9|
a|-4--4-4-4-4--7--7-7-7-7-|-4--4-4-4-4--7--7-7-7-7|
e|-4--4-4-4-4--7--7-7-7-7-|-4--4-4-4-4--7--7-7-7-7|
            
Submit corrections

comments powered by Disqus
↑ Back to top | Unsigned Tabs for Pyria Nose Bleeding. Lyrics for acoustic guitar and electric guitar. Tablatures and chords are parodies/interpretations of the original songs. You may use it for private study, scholarship, research or language learning purposes only