» » »

Pushstick - Untitled Tabs (ver.1)

Artists:  A B C D E F G H I J K L M N O P Q R S T U V W X Y Z # 

Pushstick - Untitled Tabs (ver.1)

Unsigned
Rating:
0/5 (0 votes)

Tabs too difficult? Try these video lessons and learn fast.
                E-----------------------------------------------------------------------------12/17--
B------------------------------------------------------------------------------------
G------------------------------------------------------------------------------------
D------------------------------------------------------------------------------------
A------------------------------------------------------------------------------------
E-5-5-5-5-7-7-7-7-2-2-2-2-2-2-2-2---------5-5-5-7-7-7-7-0-0-0-0-0-0-0-0--------------
Opening Solo Repeat X2

E-5----5----7----2----5---5----7----0----5----5----7----2----5----5----7----0
B-5----5----7----2----5---5----7----0----5----5----7----2----5----5----7----0
G-5----5----7----2----5---5----7----0----5----5----7----2----5----5----7----0
D-7----7----9----4----7---7----9----2----7----7----9----4----7----7----9----2
A-7----7----9----4----7---7----9----2----7----7----9----4----7----7----9----2
E-5----5----7----2----5---5----7----0----5----5----7----2----5----5----7----0

we used to be process of infliction but now we are pUsHsTiCk
“Throughout the verse this progression is doubled in rhythm.
Then in the chorus it is muted to the rhythm shown above.
This is the easiest song in the world to play.
Learn it play and tell your friends about this site and our band.”
“Drummer and Lead singer of Pushstick”
		Harley Seasholtz
            
Tabs too difficult? Try these video lessons and learn fast.




comments powered by Disqus
↑ Back to top | Tablatures and chords are parodies/interpretations of the original songs. You may use it for private study, scholarship, research or language learning purposes only