» » »

Unsigned, Prolonged Destiny - One And The Same Tabs (ver.1)

Artists:  A B C D E F G H I J K L M N O P Q R S T U V W X Y Z # 

Prolonged Destiny - One And The Same Tabs (ver.1)

Unsigned Tabs
Rating:
0/5 (0 votes)
Prolonged Destiny - One And The Same lessons Tabs too difficult? Try these video lessons and learn fast
                                    Prolonged Destiny - One and the Same


# = Palm Mute
~ - let ring
* = stop suddenly
 = Slide to next note

Intro - Only Guitar 1
e|----------------------------|----------|-----------|-----------------------|
B|----------------------------|first time|Second time|-----------------------|
G|-99999999-55555555----------|----------|-77777777--|-----------------------|
D|-99999999-55555555-55555555-|-77777777-|-77777777--|-----------------------|X2
A|-77777777-33333333-55555555-|-77777777-|-55555555--|-----------------------|
E|-##-###-#-##-###-#-33333333-|-55555555-|-----------|-----------------------|
                     ## ### #   ## ### #

Intro Pt. 2 - Guitar 1/Rythm
e|---------------------------------------------------------------------------|
B|---------------------------------------------------------------------------|
G|-99999999-55555555---------------------------------------------------------|
D|-99999999-55555555-55555555-77777777---------------------------------------|X2
A|-77777777-33333333-55555555-77777777---------------------------------------|
E|-------------------33333333-55555555---------------------------------------|

Intro Pt. 2 - Guitar 2/Lead
e|--------------------------------|------------------------------------------|
B|--------8-7----8-7-8--8-7-8>10--|--------8-7----8-7-8--8-7-8>10------------|
G|-9-7-9------9-------------------|-9-7-9------9-----------------------------|
D|--------------------------------|------------------------------------------|X1
A|--------------------------------|------------------------------------------|
E|--------------------------------|------------------------------------------|

Verse 1/Guitar 1 and 2 together

You've got to...
think about the process of elimination,
the concept of reality in our own nation.
to build our own society would be a dream,
but why put faith in something that will never be.

e|---------------------------------------------------------------------------|
B|---------------------------------------------------------------------------|
G|-99999999-55555555----------77777777--99999999-55555555---------------7----|
D|-99999999-55555555-55555555-77777777--99999999-55555555-55555555-5555-7----|X2
A|-77777777-33333333-55555555-55555555--77777777-33333333-55555555-5555-5----|
E|-##-###-#-##-###-#-33333333-##-###-#--##-###-#-##-###-#-33333333-3333------|
                     ## ### #                             ## ### # 

Verse 2/Guitar 1 and 2 together

Anything more than a used up fantasy,
where no one is to blame, yet everyone agrees,
on what is said and what is meant by people's point of views,
it's something we can do.

e|---------------------------------------------------------------------------|
B|---------------------------------------------------------------------------|
G|-99999999-55555555----------77777777--99999999-55555555---------------7----|
D|-99999999-55555555-55555555-77777777--99999999-55555555-55555555-5555-7----|X2
A|-77777777-33333333-55555555-55555555--77777777-33333333-55555555-5555-5----|
E|-##-###-#-##-###-#-33333333-##-###-#--##-###-#-##-###-#-33333333-3333------|
                     ## ### #                             ## ### # 


Chorus/Guitar 1 and 2

It's your destiny to do something different,
show the world just what can be done,
it's a legacy everyone dreams of,
but are too scared to try...live and wait to die.

e|---------------------------------------------------------------------------|
B|---------------------------------------------------------------------------|
G|--99999999-5555-7777-99999999-5555-7777-99999999-5555-7777----------7------|
D|--99999999-5555-7777-99999999-5555-7777-99999999-5555-7777-77777777-7-*----|X1
A|--77777777-3333-5555-77777777-3333-5555-77777777-3333-5555-77777777-5------|
E|-----------------------------------------------------------55555555--------|
                                                             ########

Intro X 1

Intro Pt. 2 - Guitar 1/Rythm
e|---------------------------------------------------------------------------|
B|---------------------------------------------------------------------------|
G|-99999999-55555555---------------------------------------------------------|
D|-99999999-55555555-55555555-77777777---------------------------------------|X1
A|-77777777-33333333-55555555-77777777---------------------------------------|
E|-------------------33333333-55555555---------------------------------------|

Intro Pt. 2 - Guitar 2/Lead
e|---------------------------------------------------------------------------|
B|--------8-7----8-7-8--8-7-8>10---------------------------------------------|
G|-9-7-9------9--------------------------------------------------------------|
D|---------------------------------------------------------------------------|X1
A|---------------------------------------------------------------------------|
E|---------------------------------------------------------------------------|

Verse 3/Guitar 1 and 2 together

You've got to try all that you can, and give it what you've got,
be all that you are, and everything you're not.
Don't put your faith in loyality and let them lead your life,
all of this is your choice.

e|---------------------------------------------------------------------------|
B|---------------------------------------------------------------------------|
G|-99999999-55555555----------77777777--99999999-55555555---------------7----|
D|-99999999-55555555-55555555-77777777--99999999-55555555-55555555-5555-7----|X2
A|-77777777-33333333-55555555-55555555--77777777-33333333-55555555-5555-5----|
E|-##-###-#-##-###-#-33333333-##-###-#--##-###-#-##-###-#-33333333-3333------|
                     ## ### #                             ## ### # 

Chorus/Guitar 1 and 2

It's your destiny to do something different,
show the world just what can be done,
it's a legacy everyone dreams of,
but are too scared to try...live and wait to die.

e|---------------------------------------------------------------------------|
B|---------------------------------------------------------------------------|
G|--99999999-5555-7777-99999999-5555-7777-99999999-5555-7777----------7------|
D|--99999999-5555-7777-99999999-5555-7777-99999999-5555-7777-77777777-7-*----|X1
A|--77777777-3333-5555-77777777-3333-5555-77777777-3333-5555-77777777-5------|
E|-----------------------------------------------------------55555555--------|
                                                             ########
Break/Guitar 2
e|---------|
B|---------|
G|-9-9-7-9-|
D|-9-------|X 1
A|-7-------|
E|---------|

Bridge/Guitar 1 and 2
e|---------------------------------------------------------------------------|
B|---------------------------------------------------------------------------|
G|------2222-----------------2222--------------------------------------------|
D|-2222-2222-5555-4444--2222-2222-5555-4444--(every note palm muted)---------|X1
A|-2222-0000-5555-4444--2222-0000-5555-4444----------------------------------|
E|-0000------3333-2222--0000------3333-2222----------------------------------|

e|---------------------------------------------------------------------------|
B|---------------------------------------------------------------------------|
G|------2222-----------------2222--------------------------------------------|
D|-2222-2222-5555-4444--2222-2222-5555-4444----------------------------------|X1
A|-2222-0000-5555-4444--2222-0000-5555-4444----------------------------------|
E|-0000------3333-2222--0000------3333-2222----------------------------------|
   ## # ## # ## # ## #  ## # ## # ## # ## #


Cuz it's a prolonged destiny,
a life times worth of epiphany
e|---------------------------------------------------------------------------|
B|---------------------------------------------------------------------------|
G|------2222-----------------2222--------------------------------------------|
D|-2222-2222-5555-4444--2222-2222-5555-4444--(every note palm muted)---------|X1.5
A|-2222-0000-5555-4444--2222-0000-5555-4444----------------------------------|
E|-0000------3333-2222--0000------3333-2222----------------------------------|


e|---------------------------------------------------------------------------|
B|---------------------------------------------------------------------------|
G|---------------------------------------------------------------------------|
D|-2-2---2-2-----------------------------------------------------------------|X1
A|-2-2*--2-2*----------------------------------------------------------------|
E|-0-0---0-0-----------------------------------------------------------------|

e|---------------------------------------------------------------------------|
B|---------------------------------------------------------------------------|
G|------2222-----------------2222--------------------------------------------|
D|-2222-2222-5555-4444--2222-2222-5555-4444--(every note palm muted)---------|X1
A|-2222-0000-5555-4444--2222-0000-5555-4444----------------------------------|
E|-0000------3333-2222--0000------3333-2222----------------------------------|


e|---------------------------------------|-----------------------------------|
B|---------------------------------------|-last time-------------------------|
G|------2222---------------2222----------|------2222-------------------------|
D|-2222-2222-5-5-4-4--2222-2222-5-5-4-4--|-2222-2222-55555555----------------|X4
A|-2222-0000-5-5-4-4--2222-0000-5-5-4-4--|-2222-0000-55555555----------------|
E|-0000------3-3-2-2--0000------3-3-2-2--|-0000------33333333----------------|

Verse 4

So think about the process of elimnation,
the concept of reality in our own nation.
GO BEYOND THE EXPECTATIONS,
OF YOUR EVERY SALUTATION,
something has to be done!

e|---------------------------------------------------------------------------|
B|---------------------------------------------------------------------------|
G|-99999999-55555555---------------------------------------------------------|
D|-99999999-55555555-55555555-77777777---------------------------------------|X2
A|-77777777-33333333-55555555-77777777---------------------------------------|
E|-------------------33333333-55555555---------------------------------------|

e|---------------------------------------------------------------------------|
B|---------------------------------------------------------------------------|
G|-9-9-9-9-5-5-5-5---------7-------------------------------------------------|
D|-9-9-9-9-5-5-5-5-5-5-5-5-7-------------------------------------------------|X 1
A|-7-7-7-7-3-3-3-3-5-5-5-5-5-------------------------------------------------|
E|-----------------3-3-3-3---------------------------------------------------|

Chorus/Guitar 1 and 2

It's your destiny to do somthing different,
show the world just what can be done,
it's a legacy everyone dreams of,
but are too scared to try...live and wait to die.

e|---------------------------------------------------------------------------|
B|---------------------------------------------------------------------------|
G|--99999999-5555-7777-99999999-5555-7777-99999999-5555-7777----------7------|
D|--99999999-5555-7777-99999999-5555-7777-99999999-5555-7777-77777777-7-*----|X1
A|--77777777-3333-5555-77777777-3333-5555-77777777-3333-5555-77777777-5------|
E|-----------------------------------------------------------55555555--------|
                                                             ########

Chorus/Guitar 1 and 2

It's your destiny to do something different,
show the world just what can be done,
it's a legacy everyone dreams of,
but are too scared to try...live and wait to die.

e|---------------------------------------------------------------------------|
B|---------------------------------------------------------------------------|
G|--99999999-5555-7777-99999999-5555-7777-99999999-5555-7777----------7------|
D|--99999999-5555-7777-99999999-5555-7777-99999999-5555-7777-77777777-7-*----|X1
A|--77777777-3333-5555-77777777-3333-5555-77777777-3333-5555-77777777-5------|
E|-----------------------------------------------------------55555555--------|
                                                             ########

Outro Pt. 1 - Guitar 1/Rythm
e|---------------------------------------------------------------------------|
B|---------------------------------------------------------------------------|
G|-99999999-55555555---------------------------------------------------------|
D|-99999999-55555555-55555555-77777777---------------------------------------|X2
A|-77777777-33333333-55555555-77777777---------------------------------------|
E|-------------------33333333-55555555---------------------------------------|

Outro Pt. 1 - Guitar 2/Lead
e|--------------------------------|------------------------------------------|
B|--------8-7----8-7-8--8-7-8>10--|--------8-7----8-7-8--8-7-8>10------------|
G|-9-7-9------9-------------------|-9-7-9------9-----------------------------|
D|--------------------------------|------------------------------------------|X1
A|--------------------------------|------------------------------------------|
E|--------------------------------|------------------------------------------|


Outro Pt 2 - Guitar 1

just think about the process of elimination...
e|---------------------------------------------------------------------------|
B|---------------------------------------------------------------------------|
G|-9~----------9*------------------------------------------------------------|
D|-9~----------9*------------------------------------------------------------|
A|-7~----------7*------------------------------------------------------------|
E|---------------------------------------------------------------------------|
            
Submit corrections

comments powered by Disqus
↑ Back to top | Unsigned Tabs for Prolonged Destiny - One And The Same. Lyrics for acoustic guitar and electric guitar. Tablatures and chords are parodies/interpretations of the original songs. You may use it for private study, scholarship, research or language learning purposes only