» » »

Unsigned, Portrait Of Poison - Hate Tabs (ver.1)

Artists:  A B C D E F G H I J K L M N O P Q R S T U V W X Y Z # 

Portrait Of Poison - Hate Tabs (ver.1)

Unsigned Tabs
 Rating:
4/5 (4 votes)
Portrait Of Poison - Hate lessons Tabs too difficult? Try these video lessons and learn fast
                Intro

e|-------------------------------------------------------------------------|
b|-------------------------------------------------------------------------|
g|-------------------------------------------------------------7-7-9-9-----|
d|---------------------------------------------------------5-5-7-7-9-9-9-9-|
a|---------------------------------------------------------5-5-5-5-7-7-9-9-|
E|-3-3-3-3-5-5-5-5-6-6-6-6-2-2-2-2-5-5-5-5-3-3-3-3-5-5-5-5-3-3---------7-7-|

For this intro try use a channel changer and play the picking
in clean and the strums in overdrive.

Main riff

e|-----------------------------------------------------------------|
b|-----------------------------------------------------------------|
g|-----------------7-7-7-7-7-7-7-7-9-9-9-9-9-9-9-9-----------------| Repeat x3
d|-5-5-5-5-5-5-5-5-7-7-7-7-7-7-7-7-9-9-9-9-9-9-9-9-9-9-9-9-9-9-9-9-|
a|-5-5-5-5-5-5-5-5-5-5-5-5-5-5-5-5-7-7-7-7-7-7-7-7-9-9-9-9-9-9-9-9-|
E|-3-3-3-3-3-3-3-3---------------------------------7-7-7-7-7-7-7-7-|

Bridge

e|-1-1-1-1-2-1-1-1-1-2-1-1-1-1-3-|
b|-1-1-1-1-2-1-1-1-1-2-1-1-1-1-3-| Heavy down strums
g|-1-1-1-1-2-1-1-1-1-2-1-1-1-1-3-|
d|-1-1-1-1-2-1-1-1-1-2-1-1-1-1-3-|
a|-1-1-1-1-2-1-1-1-1-2-1-1-1-1-3-|
E|-0-0-0-0-0-0-0-0-0-0-0-0-0-0-0-|

Chorus

e|-------------------------------------------------------
b|-------------------------------------------------------
g|-------------------------------------------------------
d|-1-1-1-1-2-1-1-1-1-2-3-3-3-3-4-3-3-3-3-4-1-1-1-1-2/----
a|-1-1-1-1-2-1-1-1-1-2-3-3-3-3-4-3-3-3-3-4-1-1-1-1-2/----
E|-1-1-1-1-2-1-1-1-1-2-3-3-3-3-4-3-3-3-3-4-1-1-1-1-2/----

Order of play

Intro ----> Main riff ----> Bridge ----> Chorus ----> Main riff

----> Bridge ----> Chorus ----> Solo ----> Bridge ----> Chorus

Music wrote by Matthew Burnside
            
Submit corrections

comments powered by Disqus
↑ Back to top | Unsigned Tabs for Portrait Of Poison - Hate. Lyrics for acoustic guitar and electric guitar. Tablatures and chords are parodies/interpretations of the original songs. You may use it for private study, scholarship, research or language learning purposes only