» » »

Unsigned, Point Of Impact - Pricecheck Tabs (ver.1)

Artists:  A B C D E F G H I J K L M N O P Q R S T U V W X Y Z # 

Point Of Impact - Pricecheck Tabs (ver.1)

Unsigned Tabs
 Rating:
4/5 (4 votes)
Point Of Impact - Pricecheck lessons Tabs too difficult? Try these video lessons and learn fast
1
                x = Palm Mute
h = Hammer On
p = Pull Off

Intro.
E----------------------------------------------------------------
B----------------------------------------------------------------
G----------------------------------------------------------------
D-----7-5-4-------7-5-4-------7-5-4-------7-5-4-7---------------- 
A-5-7-------5---7-------5---7-------5---7------------------------
E-------------5-----------7-----------3--------------------------
   X 2 Last one, hold for moment.

Verse.
E----------------------------------------------------------------
B----------------------------------------------------------------
G--------7-------------------------------------------------------
D--------7--------7--------9--------5----------------------------
A-xxxxxxx5--------7--------9--------5----------------------------
E----------xxxxxxx5-xxxxxxx7-xxxxxxx3----------------------------
   X 2

Chorus.
E----------------------------------------------------------------
B----------------------------------------------------------------
G----------------------------------------------------------------
D----------------------------------------------------------------
A----------------------------------------------------------------
E----------------------------------------------------------------

Verse X 2
Chorus X 2

Bass Guitar solo than come in on last part of it with
E--12/5

Breakdown.
E----------------------------------------------------------------
B----------------------------------------------------------------
G-7777-----------------------------------------------------------
D-77777777-779999555555------------------------------------------
A-555-7777-779999555555------------------------------------------
E-----555--5-777-333-3-------------------------------------------
  X 3

This is not the final product. And I still need to tab ou the chorus and rhyhm guitar parts. This is just what I have written down now. More to come.
-Dave
            
Submit corrections

comments powered by Disqus
↑ Back to top | Unsigned Tabs for Point Of Impact - Pricecheck. Lyrics for acoustic guitar and electric guitar. 1 Tablatures and chords are parodies/interpretations of the original songs. You may use it for private study, scholarship, research or language learning purposes only