» » »

Unsigned, Plutonium - Stupid Girl Tabs (ver.1)

Artists:  A B C D E F G H I J K L M N O P Q R S T U V W X Y Z # 

Plutonium - Stupid Girl Tabs (ver.1)

Unsigned Tabs
 Rating:
4/5 (4 votes)
Plutonium - Stupid Girl lessons Tabs too difficult? Try these video lessons and learn fast
                lead guitar
___________

E|--------------------------------------------------------------
B|--------------------------------------------------------------
G|--------------------------------------------------------------
D|--------------------------------------------------------------
A|----5-5-----5-5----5-5-5-4-4-----4-4----4-4----4-4-4-2-2------
E|--0------0-------0------------0-------0------0----------------

E|--------------------------------------------------------------
B|--------------------------------------------------------------
G|--------------------------------------------------------------
D|--------------------------------------------------------------
A|---2-2---2-2---2-2-2-0-0---0-0----0-0---0-0---0-0-------------
E|-0-----0-----0-----------0------0-----0-----0-----------------
rhythm
E|---6------6-------8------9-------6------6------8-----9--------
B|-----6-6----6-6-----6-6----6-6-----6-6----6-6----6-6---6-6----
G|--------------------------------------------------------------
D|--------------------------------------------------------------
A|--------------------------------------------------------------
E|--------------------------------------------------------------
lead while rhythm above is playing
E|--------------------------------------------------------------
B|--------------------------------------------------------------
G|--------------------------------------------------------------
D|-0-0-0-0-0-0-1-1-1-2-2-2-0-0-0-0-0-0-4-4-4-3-3-3--------------
A|-0-0-0-0-0-0-1-1-1-2-2-2-0-0-0-0-0-0-4-4-4-3-3-3--------------
E|-0-0-0-0-0-0-1-1-1-2-2-2-0-0-0-0-0-0-4-4-4-3-3-3--------------
lead pre-chorus
  palm mute  .........
E|--------------------------------------------------------------
B|--------------------------------------------------------------
G|--------------------------------------------------------------
D|--------------------------------------------------------------
A|-0-1-2-----0-0-0-0-0------------------------------------------
E|-0-1-2-----0-0-0-0-0------------------------------------------
rhythm pre-chorus
E|-6------8-----------------------------------------------------
B|---6-6----6-6-------------------------------------------------
G|--------------------------------------------------------------
D|--------------------------------------------------------------
A|--------------------------------------------------------------
E|--------------------------------------------------------------
chorus- rhythm
E|--------------------------------------------------------------
B|--------------------------------------------------------------
G|--3-----5-----3-----5-----2-----5-----2-----5-----------------
D|----3-3---3-3---3-3---3-3---2-2---2-2---2-2---2-2-------------
A|--------------------------------------------------------------
E|--------------------------------------------------------------

E|--------------------------------------------------------------
B|--------------------------------------------------------------
G|--0-----3-----0-----3-----3-----5-----7-5-3-2-3-2-------------
D|----0-0---0-0---0-0---0-0---3-3---3-3-------------------------
A|--------------------------------------------------------------
E|--------------------------------------------------------------
   lead chorus
E|--------------------------------------------------------------
B|--------------------------------------------------------------
G|--------------------------------------------------------------
D|-3-3-3-3-3-3-3-3-3-3-3-3-7-7-7-7-7-7-7-7-7-7-7-7--------------
A|-3-3-3-3-3-3-3-3-3-3-3-3-7-7-7-7-7-7-7-7-7-7-7-7--------------
E|-3-3-3-3-3-3-3-3-3-3-3-3-7-7-7-7-7-7-7-7-7-7-7-7--------------

E|--------------------------------------------------------------
B|--------------------------------------------------------------
G|--------------------------------------------------------------
D|-1-1-1-1-1-1-1-1-1-1-1-1--0-0-0-0-0-0-0-0-0-0-0-0-------------
A|-1-1-1-1-1-1-1-1-1-1-1-1--0-0-0-0-0-0-0-0-0-0-0-0-------------
E|-1-1-1-1-1-1-1-1-1-1-1-1--0-0-0-0-0-0-0-0-0-0-0-0-------------
bridge  (lead acoustic)

E|--------------------------------------------------------------
B|--------------------------------------------------------------
G|-3--3-3-3-3-5-5-5-6-6-6------------6-6-6-6-6-6----------------
D|-3--3-3-3-3-5-5-5-6-6-6-6--6-6-6-6-6-6-6-6-6-6----------------
A|-1--1-1-1-1-3-3-3-4-4-4-6--6-6-6-6-3-3-3-4-4-4----------------
E|------------------------6--6-6-6-6----------------------------

E|--------------------------------------------------------------
B|--------------------------------------------------------------
G|------------5-5-5-6-6-6------------5-5-5-6-6-6----------------
D|-4--4-4-4-4-5-5-5-6-6-6-3--3-3-3-3-5-5-5-6-6-6----------------
A|-4--4-4-4-4-3-3-3-4-4-4-3--3-3-3-3-3-3-3-4-4-4----------------
E|-4--4-4-4-4-------------3--3-3-3-3----------------------------
            
Submit corrections

comments powered by Disqus
↑ Back to top | Unsigned Tabs for Plutonium - Stupid Girl. Lyrics for acoustic guitar and electric guitar. Tablatures and chords are parodies/interpretations of the original songs. You may use it for private study, scholarship, research or language learning purposes only