» » »

Pizzel - Follow The Light Bass tabs (ver.1)

Artists:  A B C D E F G H I J K L M N O P Q R S T U V W X Y Z # 

Pizzel - Follow The Light Bass tabs (ver.1)

Unsigned
Rating:
0/5 (0 votes)

Hard to play? Try these video lessons and learn fast.
                
Intro (4x)
E------------------------------------------
A--55--33--22--33--------------------
D------------------------------------------
G------------------------------------------

Chorus  (8x)  first 4 times play slow, last 4 times play fast
E---------------------------------------
A-555---333---222---111---0---
D---------------------------------------
G---------------------------------------

Bridge (4x)
E----------------------------------------------------------------------
A--55555555-----88888888----55555555--33---44---5
D----------------------------------------------------------------------
G----------------------------------------------------------------------

Chorus (8x) first 4 times play slow, last 4 times play fast
E------------------------------------------
A---555---333---222---111---0----
D------------------------------------------
G------------------------------------------

Bridge (4x)
E----------------------------------------------------------------------
A---55555555---88888888----55555555---33---44---5
D----------------------------------------------------------------------
G----------------------------------------------------------------------

Outro (2x)
E-----------------------
A---55--33--22--33------
D-----------------------
G----------------------- 

				Easy Song
            
Hard to play? Try these video lessons and learn fast. | Correct




comments powered by Disqus
↑ Back to top | Tablatures and chords are parodies/interpretations of the original songs. You may use it for private study, scholarship, research or language learning purposes only