» » »

Unsigned, Phanatix - Deeper Tabs (ver.1)

Artists:  A B C D E F G H I J K L M N O P Q R S T U V W X Y Z # 

Phanatix - Deeper Tabs (ver.1)

Unsigned Tabs
 Rating:
4/5 (4 votes)
Phanatix - Deeper lessons Tabs too difficult? Try these video lessons and learn fast
                all 7-string guitars tuned E,B,G,D,A,E,B

(=hammer on
)=pulloff
/=slide
*=harmonics
**=REPEAT BAR

intro w/flanger/chors/light distortion

E--8--8-8-8--8--6--6-6--6(8-9)8     4x
B------------------------------
G------------------------------
D------------------------------
A------------------------------
E------------------------------
B------------------------------
                            ** 3x
E------------------------------|
B------------------------------|
G--6--6-6-6--6-6/4--4-4-4/7-7/6|
D--4--4-4-4--4-4/2--2-2-2/5-6/4|
A--4--4-4-4--4-4/2--2-2-2/5-6/4|
E------------------------------|
B------------------------------|
            
Submit corrections

comments powered by Disqus
↑ Back to top | Unsigned Tabs for Phanatix - Deeper. Lyrics for acoustic guitar and electric guitar. Tablatures and chords are parodies/interpretations of the original songs. You may use it for private study, scholarship, research or language learning purposes only