» » »

Unsigned, Pezz-Pocket - Stale Orange Pez Tabs (ver.1)

Artists:  A B C D E F G H I J K L M N O P Q R S T U V W X Y Z # 

Pezz-Pocket - Stale Orange Pez Tabs (ver.1)

Unsigned Tabs
 Rating:
4/5 (4 votes)
Pezz-Pocket - Stale Orange Pez lessons Tabs too difficult? Try these video lessons and learn fast
1
                  
Intro/Bridge:
e-----------------------<
B-----------------------<
G-----------------------< x2
D-----------------------<
A-------2222-3333-0000--<
E--3333-----------------<

Verse:
e-----------------------<
B-----------------------<
G-----------------------< x2
D------------4444-5555--<
A--5555-5555-2222-3333--<
E--3333-0000------------<

Chorus:
e-----------------------<
B-----------------------<
G-----------------------< x4
D--5555-4444-4444-------<
A--3333-2222-0000-5555--<
E-----------------3333--<

Guitar Solo (Interlude):
e--------------------------------<
B--------------------------------<
G--------------------------------< x2
D--------------------------------<
A---------2-2222-3-3333---3-2-0--<
E--3-3333---------------3--------<

Outro:
e-----------------<
B-----------------<
G-----------------< x1
D-----44-55-55----<
A--55-22-33-00-5--<
E--33----------3--<

Progression:
Intro
Verse
Bridge
Verse
Chorus
Interlude
Bridge
Outro
            
Submit corrections

comments powered by Disqus
↑ Back to top | Unsigned Tabs for Pezz-Pocket - Stale Orange Pez. Lyrics for acoustic guitar and electric guitar. 1 Tablatures and chords are parodies/interpretations of the original songs. You may use it for private study, scholarship, research or language learning purposes only