» » »

Pergatory - Do You Know... Tabs (ver.1)

Artists:  A B C D E F G H I J K L M N O P Q R S T U V W X Y Z # 

Pergatory - Do You Know... Tabs (ver.1)

Unsigned
Rating:
0/5 (0 votes)

Hard to play? Try these video lessons and learn fast.
                %=Bend string

Great song by a truly amazing band, worth learning

WHOLE SONG(arent you lot lucky the whole song here written out, perfectly stating how many times to play each riff):
INTRO
4-------------------------------------------------------
5-------------------------------------------------------
6--0-3-0-0-5-- --0-3-0-0-5-- --0-3-0-0-5-- --0-3-x-5-5--

4-------------------------------------------------------
5-------------------------------------------------------
6--0-3-0-0-5-- --0-3-0-0-5-- --0-3-0-0-5-- --0-3-x-5-5--

4--0-3-0-0-5-- --0-3-0-0-5-- --0-3-0-0-5-- --0-3-x-5-5--
5--0-3-0-0-5-- --0-3-0-0-5-- --0-3-0-0-5-- --0-3-x-5-5--
6--0-3-0-0-5-- --0-3-0-0-5-- --0-3-0-0-5-- --0-3-x-5-5--

4--0-3-0-0-5-- --0-3-0-0-5-- --0-3-0-0-5-- --0-3-x-5-5--
5--0-3-0-0-5-- --0-3-0-0-5-- --0-3-0-0-5-- --0-3-x-5-5--
6--0-3-0-0-5-- --0-3-0-0-5-- --0-3-0-0-5-- --0-3-x-5-5--

4------------------------------------------------------------
5------------------------------------------------------------
6--0-0-3-0--x-x-5-0-7-0-0-5%----0-0-3-0---12-12-12-12-12-12--

4------------------------------------------------------------
5------------------------------------------------------------
6--0-0-3-0--x-x-5-0-7-0-0-5%----0-0-3-0---12-12-12-12-12-12--

VERSE 1
‘Do you know when the bus is coming?’ (riff now played in a ‘call response’ with the lyrics)

4------------------------------------------------------------
5------------------------------------------------------------
6--0-0-3-0--x-x-5-0-7-0-0-5%----0-0-3-0---12-12-12-12-12-12--

‘Yes I do it’s quarter past two’

4------------------------------------------------------------
5------------------------------------------------------------
6--0-0-3-0--x-x-5-0-7-0-0-5%----0-0-3-0---12-12-12-12-12-12--

‘Did you watch big brother?’

4------------------------------------------------------------
5------------------------------------------------------------
6--0-0-3-0--x-x-5-0-7-0-0-5%----0-0-3-0---12-12-12-12-12-12--

‘Yes, it was very rude’

4------------------------------------------------------------
5------------------------------------------------------------
6--0-0-3-0--x-x-5-0-7-0-0-5%----0-0-3-0---12-12-12-12-12-12--
CHORUS
‘The bus is approaching’

4---3-3---
5---3-3---
6---3-3---

‘Wrong bus’

4---3-3---
5---3-3---
6---3-3---

‘Wrong bus’

4---3-3---
5---3-3---
6---3-3---

‘Wrong bus’

4---3-3---
5---3-3---
6---3-3---

‘Wrong bus’

4------------------------------------------------------------
5------------------------------------------------------------
6--0-0-3-0--x-x-5-0-7-0-0-5%----0-0-3-0---12-12-12-12-12-12--

4------------------------------------------------------------
5------------------------------------------------------------
6--0-0-3-0--x-x-5-0-7-0-0-5%----0-0-3-0---12-12-12-12-12-12--

VERSE 2
‘Do you know where the bus is going?’

4------------------------------------------------------------
5------------------------------------------------------------
6--0-0-3-0--x-x-5-0-7-0-0-5%----0-0-3-0---12-12-12-12-12-12--

‘Yes I do to Ovenden’

4------------------------------------------------------------
5------------------------------------------------------------
6--0-0-3-0--x-x-5-0-7-0-0-5%----0-0-3-0---12-12-12-12-12-12--

‘Did you watch survivor?’

4------------------------------------------------------------
5------------------------------------------------------------
6--0-0-3-0--x-x-5-0-7-0-0-5%----0-0-3-0---12-12-12-12-12-12--

‘Yes and it was a little bit rude’

CHORUS 2
CHORUS
‘The bus is approaching’

4---3-3---
5---3-3---
6---3-3---

‘Right bus’

4---3-3---
5---3-3---
6---3-3---

‘Wrong bus’

4---3-3---
5---3-3---
6---3-3---

‘Right bus’

4---3-3---
5---3-3---
6---3-3---

‘Wrong bus’

4---3-3---
5---3-3---
6---3-3---

‘Right bus’

LITTLE BUILD UP THING
4---3-3------3-3------3-3------3-3------3-3------3-3------3-3------3-3------3-3---
5---3-3------3-3------3-3------3-3------3-3------3-3------3-3------3-3------3-3---
6---3-3------3-3------3-3------3-3------3-3------3-3------3-3------3-3------3-3---

4---3-3------3-3------3-3------3-3---
5---3-3------3-3------3-3------3-3---
6---3-3------3-3------3-3------3-3---

‘Aww yeah’

4---3-3---
5---3-3---
6---3-3---

‘Aww yeah’

4---3-3---
5---3-3---
6---3-3---

‘Aww yeah’

4---3-3---
5---3-3---
6---3-3---

‘NOW GO CRAZY!’

4-------------------------------------------------------
5-------------------------------------------------------
6--0-3-0-0-5-- --0-3-0-0-5-- --0-3-0-0-5-- --0-3-x-5-5--

4-------------------------------------------------------
5-------------------------------------------------------
6--0-3-0-0-5-- --0-3-0-0-5-- --0-3-0-0-5-- --0-3-x-5-5--

4-------------------------------------------------------
5-------------------------------------------------------
6--0-3-0-0-5-- --0-3-0-0-5-- --0-3-0-0-5-- --0-3-x-5-5--

4-------------------------------------------------------
5-------------------------------------------------------
6--0-3-0-0-5-- --0-3-0-0-5-- --0-3-0-0-5-- --0-3-x-5-5--

4--0-3-0-0-5-- --0-3-0-0-5-- --0-3-0-0-5-- --0-3-x-5-5--
5--0-3-0-0-5-- --0-3-0-0-5-- --0-3-0-0-5-- --0-3-x-5-5--
6--0-3-0-0-5-- --0-3-0-0-5-- --0-3-0-0-5-- --0-3-x-5-5--

4--0-3-0-0-5-- --0-3-0-0-5-- --0-3-0-0-5-- --0-3-x-5-5--
5--0-3-0-0-5-- --0-3-0-0-5-- --0-3-0-0-5-- --0-3-x-5-5--
6--0-3-0-0-5-- --0-3-0-0-5-- --0-3-0-0-5-- --0-3-x-5-5--

4--0-3-0-0-5-- --0-3-0-0-5-- --0-3-0-0-5-- --0-3-x-5-5--
5--0-3-0-0-5-- --0-3-0-0-5-- --0-3-0-0-5-- --0-3-x-5-5--
6--0-3-0-0-5-- --0-3-0-0-5-- --0-3-0-0-5-- --0-3-x-5-5--

4--0-3-0-0-5-- --0-3-0-0-5-- --0-3-0-0-5-- --0-3-x-5-5--
5--0-3-0-0-5-- --0-3-0-0-5-- --0-3-0-0-5-- --0-3-x-5-5--
6--0-3-0-0-5-- --0-3-0-0-5-- --0-3-0-0-5-- --0-3-x-5-5--

4--0-3-0-0-5-- --0-3-0-0-5-- --0-3-0-0-5-- --0-3-x-5-5--
5--0-3-0-0-5-- --0-3-0-0-5-- --0-3-0-0-5-- --0-3-x-5-5--
6--0-3-0-0-5-- --0-3-0-0-5-- --0-3-0-0-5-- --0-3-x-5-5--

4--0-3-0-0-5-- --0-3-0-0-5-- --0-3-0-0-5-- --0-3-x-5-5--
5--0-3-0-0-5-- --0-3-0-0-5-- --0-3-0-0-5-- --0-3-x-5-5--
6--0-3-0-0-5-- --0-3-0-0-5-- --0-3-0-0-5-- --0-3-x-5-5--

4--0-3-0-0-5-- --0-3-0-0-5-- --0-3-0-0-5-- --0-3-x-5-5--
5--0-3-0-0-5-- --0-3-0-0-5-- --0-3-0-0-5-- --0-3-x-5-5--
6--0-3-0-0-5-- --0-3-0-0-5-- --0-3-0-0-5-- --0-3-x-5-5--

4--0-3-0-0-5-- --0-3-0-0-5-- --0-3-0-0-5-- --0-3-x-5-5--
5--0-3-0-0-5-- --0-3-0-0-5-- --0-3-0-0-5-- --0-3-x-5-5--
6--0-3-0-0-5-- --0-3-0-0-5-- --0-3-0-0-5-- --0-3-x-5-5--

OUTRO
4--0-0-3-0--x-x-5-0-7-0-0-5%----0-0-3-0---12-12-12-12-12-12--
5--0-0-3-0--x-x-5-0-7-0-0-5%----0-0-3-0---12-12-12-12-12-12--
6--0-0-3-0--x-x-5-0-7-0-0-5%----0-0-3-0---12-12-12-12-12-12--

4--0-0-3-0--x-x-5-0-7-0-0-5%----0-0-3-0---12-12-12-12-12-12--
5--0-0-3-0--x-x-5-0-7-0-0-5%----0-0-3-0---12-12-12-12-12-12--
6--0-0-3-0--x-x-5-0-7-0-0-5%----0-0-3-0---12-12-12-12-12-12--


4--0-0-3-0--x-x-5-0-7-0-0-5%----0-0-3-0---12-12-12-12-12-12--
5--0-0-3-0--x-x-5-0-7-0-0-5%----0-0-3-0---12-12-12-12-12-12--
6--0-0-3-0--x-x-5-0-7-0-0-5%----0-0-3-0---12-12-12-12-12-12--

4--0-0-3-0--x-x-5-0-7-0-0-5%----0-0-3-0---12-12-12-12-12-12--
5--0-0-3-0--x-x-5-0-7-0-0-5%----0-0-3-0---12-12-12-12-12-12--
6--0-0-3-0--x-x-5-0-7-0-0-5%----0-0-3-0---12-12-12-12-12-12--

4--0-0-3-0--x-x-5-0-7-0-0-5%----0-0-3-0---12-12-12-12-12-12--
5--0-0-3-0--x-x-5-0-7-0-0-5%----0-0-3-0---12-12-12-12-12-12--
6--0-0-3-0--x-x-5-0-7-0-0-5%----0-0-3-0---12-12-12-12-12-12--

4--0--0--3--0----x--x--5--0--7--0--0--5%------0--0--3--0-----12--12--12--12--12--12--
5--0--0--3--0----x--x--5--0--7--0--0--5%------0--0--3--0-----12--12--12--12--12--12--
6--0--0--3--0----x--x--5--0--7--0--0--5%------0--0--3--0-----12--12--12--12--12--12--


4--0---0---3---0------x---x---5---0---7---0---0---5%---
5--0---0---3---0------x---x---5---0---7---0---0---5%---
6--0---0---3---0------x---x---5---0---7---0---0---5%---

4---0---0---3---0-------12---12---12---12---12---12----
5---0---0---3---0-------12---12---12---12---12---12----
6---0---0---3---0-------12---12---12---12---12---12----

4--0----0----3----0--------x----x----5----0----7----0----0----5%---
5--0----0----3----0--------x----x----5----0----7----0----0----5%---
6--0----0----3----0--------x----x----5----0----7----0----0----5%---

4---0----0----3----0---------12----12----12----12----12----12----
5---0----0----3----0---------12----12----12----12----12----12----
6---0----0----3----0---------12----12----12----12----12----12----

And there it is! The whole song.
When played properly lasts about 4 mins nearly
Have fun!!!!!!!!!!!!!!
            
Hard to play? Try these video lessons and learn fast. | Correct




comments powered by Disqus
↑ Back to top | Tablatures and chords are parodies/interpretations of the original songs. You may use it for private study, scholarship, research or language learning purposes only