>
 >
Paul Pichon - She Left Me...

Paul Pichon - She Left Me... Bass Tabs

Unsigned - Paul Pichon - She Left Me... chords, tabs, tablatures, lyrics

Guitar lessons | Add/correct | Request | Top 50 tabs Artists:  A B C D E F G H I J K L M N O P Q R S T U V W X Y Z 0-9

Paul Pichon - She Left Me... Bass Tabs – Unsigned

CD, Sheet music, Poster

Do you like Paul Pichon - She Left Me...? Share with your friends now
Bass Tabs
she left me like a bullet leaves a gun...

G-x-|-3-|-X-|-5-|-x-|-5-|-x-|-3-|-x-|
D-x-|-5-|-X-|---|-x-|-3-|-x-|---|-x-|play whole thing 2
A---|---|---|-5-|---|---|---|-3-|---|times
E---|---|---|---|---|---|---|---|---|
  2   10  2   10  2   10  2   10  2

G-----------------------------------|
D----3-5----3----------1-1-1-1-1-1-1|play 4 times
A-5x-----3x---3-1x-1-3--------------|
E-----------------------------------|

G--------------|
D--------------|2 times fast
A-5x-3x-1x-6x--|1 times slow 
E--------------|

G-x-|-3-|-X-|-5-|-x-|-5-|-x-|-3-|-x-|
D-x-|-5-|-X-|---|-x-|-3-|-x-|---|-x-|play whole thing 2
A---|---|---|-5-|---|---|---|-3-|---|times
E---|---|---|---|---|---|---|---|---|
  2   10  2   10  2   10  2   10  2

G-------------------------------------------|
D---x7--x7--x5--x5--x3--x3--x8--x8--x8--x8--|play 2 times
A-x5--x5--x3--x3--x1--x1--x6--x6--x6--x6----|
E-------------------------------------------|

G----------------------------------|
D---7----5----3----x8--x8--x8--x8--|2 times
A-5x---3x---1x---x6--x6--x6--x6----|
E----xx---xx---xx------------------|

G-----------------|
D---7---5---3---8-|
A-5x--3x--1x--6x--|
E-----------------|

G-----17-----------17-----------------10----17----19-----------|
D---7----15------5----15------3----10-----8----15----7-6-4-----|
A-5---------15-3---------13-1---12------6----------------------|
E--------------------------------------------------------------|

G----------17----------------17----------------------10---------17----19-|
D---7-7&16----15------5-5&14----15------3-3&12----10-----8-8&17----15----|
A-5---5&16-------15-3---3&14-------13-1---1&12-12------6---6&17----------|
E------------------------------------------------------------------------|

G----------17---------------------17----------------|
D---7-7&16----15---15------5-5&14----15---15------3-|
A-5---5&16-------15---15-3---3&14-------13---13-1---|
E---------------------------------------------------|

G-----------10---10---------17----19|
D3&12----10---10-----8-8&17----15---|
A1&12-12-----------6---6&17---------|
E-----------------------------------|

2 times

G-x-|-3-|-X-|-5-|-x-|-5-|-x-|-3-|-x-|
D-x-|-5-|-X-|---|-x-|-3-|-x-|---|-x-|play whole thing 2
A---|---|---|-5-|---|---|---|-3-|---|times
E---|---|---|---|---|---|---|---|---|
  2   10  2   10  2   10  2   10  2

G---3---5---5---3-|
D-5-------3-------|
A-----5-------3---|3 times
E-----------------|

G---33---55---55--33--|
D-5---------3---------|3 times
A------5--------3-----|
E---------------------|

G---3---5---5---3-|
D-5-------3-------|
A-----5-------3---|3 times
E-----------------|

G----03--05---05--03-|
D-05--------03-------|3 times
A------05-------03---|
E--------------------|

G---3---5---5---3-|
D-5-------3-------|
A-----5-------3---|3 times
E-----------------|

G----033--055--055--033-|
D-05---------03---------|
A-------05--------03----|3 times
E-----------------------|

G------3------5\4/5------5-------3\2/3-------|
D-5-55---5----------3-33---3-----------------|
A----------55x---------------33x-------------|4 times
E--------------------------------------------|

G----------14-15-17-15-14-1717-15-14-----------15-17-18-19-1818-19-18-17-|
D--17-1717---------------------------17----------------------------------|
A---------------------------------------17-1717--------------------------|
E------------------------------------------------------------------------|

G---------17-15-14----------------------------------------------------|
D-15-1515----------17-15-14----14--------14-15-17-15-14-1515-14-------|
A---------------------------15----15-1515-----------------------17-15-|
E---------------------------------------------------------------------|
play solo 2 times with variations

G---17---17---17---17---17---17---1717---17---17---17---17----17-|
D---17---17---17---17---17---17---1717---17---19---19---19----19-|
A-3---------3---------3---------3----------------7----------7----|
E------3---------3---------3-----------3----5---------5----------|

G---17---17---17---17--17-17-17-17-17-17-17-17-|
D---17---17---17---17--17-17-17-17-17-17-17-17-|
A-3---------3---------3-----3--5--3-----3------|
E------3---------3-------5-----------5-----5---|

G---17---17---17---17---17---17---17---|
D---17---17---17---19---19---19---19---|
A-3---------3---------7---------7------|
E------3---------5---------5-----------|

G-------0-------0-------0-------0-------0---0----------|
D-4h5-5---4h5-5---4h5-5---4h5-5---4h5-5---5---2--------|
A-----------------------------------------------3------|
E-------------------------------------------------0-3-4|

G---2----2------------0---0---0-|
D-----2----2----4h5-5---5---2---|
A-0-----3----3-0----------------|
E-------------------------------|


G-------------2--4--5----|
D-----------2----3--2----|
A---------3---------3----|
E-0-3-4-4-----------4----|

third bass solo song and i like this one it has a country feel to it so i added
a little bti from "country music" so i hope you guys like it
Love
Paul Pichon





Comments


Popular Unsigned tabs & chords
1-12 Bass Tabs
Attack Of The Repertoire Bass Tabs
Nmp - Why Did I Wait For You Bass Tabs
Unarmed - M.I.A 1 Bass Tabs
Bill's Bodatius Beach Bash - Canned Ham Tabs
Climax - No Point Tabs
False Gravity Tabs
Friday Night Fights-You And Me Tabs
Just A Number - Everyday Tabs
Kevin And Friends - America Sucks Tabs


Song lyrics



↑ Back to top | Tablatures and chords are parodies/interpretations of the original songs. You may use it for private study, scholarship, research or language learning purposes only
© 2014 AZChords.com Contact us | Privacy policy | DMCA | Add/correct tabs | Request tabs | Top 50 tabs