>
 >
Paul Pichon - A Simple Game For One

Paul Pichon - A Simple Game For One Bass Tabs

Unsigned - Paul Pichon - A Simple Game For One chords, tabs, tablatures, lyrics

Guitar lessons | Add/correct | Request | Top 50 tabs Artists:  A B C D E F G H I J K L M N O P Q R S T U V W X Y Z 0-9

Paul Pichon - A Simple Game For One Bass Tabs – Unsigned

CD, Sheet music, Poster

Do you like Paul Pichon - A Simple Game For One? Share with your friends now
Bass Tabs
A simple game for One

G-10-10-10-9-7----7-<7>-<5>-<4>--10-10-10-7-7h8p7-<9>-<7>-<12>---|    
D--------------10---<7>-<5>-<4>-------------------<9>-<7>-<12>---|2 times
A----------------------------------------------------------------|
E----------------------------------------------------------------|

G-10-10-10-9-7-----|-------|---10-10-10-9-7-----|--------------|
D--------------10--|-7-----|----------------10--|--------------|
A------------------|---5---|--------------------|-<9>-<12>-----|2 times
E------------------|-----0-|--------------------|---------<12>-|
                    4 times                          4 times 
                     (the last time don't play the second 12 harmonic)
G--------------------------<7>-<5>-------------<5>-<4>--------<7>-<5>|
D----------<7>-<5>-----<9>-------------<5>-<4>------------<9>--------|
A------<9>---------<7>----------7--<5>----------------<7>----------7-|
E-<12>----------0-----------------------------------7----------------|

G-------------<5>-------|
D-----<5>-<4>-----------|
A-<5>-------------<4>---|
E------------------5*---|

G------------<9>-|-<12>-----<9>---------<7>-<5>--<12>-----<9>-----<9>----------|
D-----<5>--------|------<9>-----<7>-<9>---------------<9>-----<7>-----<9>------|
A-<7>------7-----|--------------------------------------------------------<5>--|
E--*--*--*-------|-------------------------------------------------------------|

G-<5>--------<2.8>--<5>--------<2.2>--<5>---------<3>|
D------------<2.8>-------------<2.2>--------------<3>|
A----<5>-----<2.8>-----<5>-----<2.2>-----<5>------<3>|
E--------<7>---------------<5>---------------<12>----|

G--<5>--------------------------<16>-|
D-------------------------------<16>-|
A-----<5>------------------<12>------|
E---------<4>-<5>-<7>-<12>-----------|

                     play 4 times   p
G---------------|--<9>---------<7>---------|-<5>-------------<5>---------------|
D----------7-10-|------<9>-<7>-----<7>-----|-----<5>-------------<5>-----(<9>)-|
A-0-7-8-10------|----------------------<9>-|---------<7>-------------<7>-------|
E---------------|--------------------------|--------------<9>------------------|
after this part do the whole song over again until you reach this point again
then skip it and go to the next part.

G<9>--<7>------|-<9>--<12>-<9>--<7>-|
D----------<9>-|--------------------|
A-7----7----7--|--------------------|
E--------------|--8-----8---8----8--|
play 4 times     play once

G--------------4///////16-16----------------------|
D------------2///////14---14----------------------|
A----------0-----<12>*---------5-5-5-3-2----------|
E-<12>-0-0-------------------0-----------5-2-0-0--|

Paul Pichon





Comments


Popular Unsigned tabs & chords
Dabchick - The Elcamino Hapachino Bass Tabs
Jj - Good Friend Bass Tabs
Pak Suo Won - Lost Cause Bass Tabs
Rift- Compelled To Write Bass Tabs
The Posers - Self Esteem Bass Tabs
Unarmed - To The Flag Bass Tabs
Aceglave - When You Lie Tabs
Deadline - Fake Tabs
Distortion Period- Dude Ranch Riff Tabs
Into The Woods With Juliet-If You Go Tabs


Song lyrics



↑ Back to top | Tablatures and chords are parodies/interpretations of the original songs. You may use it for private study, scholarship, research or language learning purposes only
© 2014 AZChords.com Contact us | Privacy policy | DMCA | Add/correct tabs | Request tabs | Top 50 tabs