>
 >
Pathetic - Old Guy

Pathetic - Old Guy Bass Tabs

Unsigned - Pathetic - Old Guy chords, tabs, tablatures, lyrics

Guitar lessons | Add/correct | Request | Top 50 tabs Artists:  A B C D E F G H I J K L M N O P Q R S T U V W X Y Z 0-9

Pathetic - Old Guy Bass Tabs – Unsigned

CD, Sheet music, Poster

Do you like Pathetic - Old Guy? Share with your friends now
Bass Tabs

Intro(1)
G|--12-121212-12--9-999-9--||
D|---(twelves)-------------||
A|-------------------------||
E|-------------------------||
Intro(2)
G|--12121212---------------9999--||
D|-----------9999-12121212-------||
A|-------------------------------||
E|----------(twelves)------------||
Verse
G|------------------------------||
D|------------------------------||
A|--33333--22222--44444--33331--||
E|------------------------------||
Chorus(1)
G|-------------------------------------------------------------------||
D|-------------------------------------------------------------------||
A|--1111111111111111------------------4444444444444444---------------||
E|-------------------8888888888888888------------------4~(let-ring)--||
Interlude
G|--------------------------------------------------7----7---7--||
D|--------------------5----5---5-----7----7---7--55---55---5----||
A|-----5----5---5--33---33---3----55---55---5-------------------||
E|--33---33---3-------------------------------------------------||
Chorus(2)
G|-----------------------------------------------------------------------||
D|-----------------------------------------------------------------------||
A|--1111111111111111------------------4444444444444444-5555555555555555--||
E|-------------------8888888888888888------------------3333333333333333--||
Outro
G|--------------------------------------||
D|-------------(Fade-Out)---------------||
A|--3--5-----3--5-----3--5-----3--5-----||
E|--------4--------4--------4--------4--||

     -Order-
Intro(1)    x2
Intro(2)    x4
Verse       x4
Chorus(1)   x1
Intro(2)    x4 
Verse       x4
Chorus(1)   x4
Interlude   x2
Chorus(2)   x2
Outro       x4(Fade Out)





Comments


Popular Unsigned tabs & chords
Man With Van - Anagram Of I Ex Pot Nerd Bass Tabs
The Gremlins - Quatro Stagioni Bass Tabs
Addicted To Nothing - Alone Tabs
Blinded By Darkness - ~F.H.L.N.F...~ Tabs
Don Go Tabs
F.U.B.A.R Tabs
Faded 2 Black - Open Suicide Tabs
Fondling Amber- Words Of Wisdom Tabs
Hymlick Manuver- Shove It Tabs
In Question - Don Forget Tabs


Song lyrics



↑ Back to top | Tablatures and chords are parodies/interpretations of the original songs. You may use it for private study, scholarship, research or language learning purposes only
© 2014 AZChords.com Contact us | Privacy policy | DMCA | Add/correct tabs | Request tabs | Top 50 tabs