» » »

Pandemonium - Angel Tabs (ver.1)

Artists:  A B C D E F G H I J K L M N O P Q R S T U V W X Y Z # 

Pandemonium - Angel Tabs (ver.1)

Unsigned
Rating:
0/5 (0 votes)

Hard to play? Try these video lessons and learn fast.
                Intro
e|---------------------------------------------|
B|---------------------------------------------|
G|---------------------------------------------|
D|---66666666-0--------------------------------|
A|---77777777-066666666-0-88888888-0-77777777--|
E|-------------77777777-0-66666666-0-55555555--|

Chorus
e|--------------------------------|
B|--------------------------------|
G|--------------------------------|
D|--------------------------------|
A|--2-22222-555555-999999-777777--|
E|--0-00000-333333-777777-555555--|

Verse
p.m.
e|-------------------------------------------------|
B|-------------------------------------------------|
G|-------------------------------------------------|
D|---6-0-6-0-6-0-----------------------------------|
A|---7-0-7-0-7-0--6-0-6-0-6-0-8-0-8-0-8-0-77777777-|
E|----------------7-0-7-0-7-0-6-0-6-0-6-0-55555555-|

Chorus

Verse

Interlude
e|-----------------------------------------------------------------|
B|-----------------------------------------------------------------|
G|-----------------------------------------------------------------|
D|-----------------------------------------------------------------|
A|----7/210--7/210--7/210--7----7/210---7/210---7/210---7----------|
E|-00------00-----00-----00--000-----000-----000------00-----------|

Chorus

Verse

Chorus

Outro-let ring
e|--------------------------------|
B|--------------------------------|
G|--------------------------------|
D|--------------------------------|
A|--2-----------------------------|
E|--0-----------------------------|
            
Hard to play? Try these video lessons and learn fast. | Correct




comments powered by Disqus
↑ Back to top | Tablatures and chords are parodies/interpretations of the original songs. You may use it for private study, scholarship, research or language learning purposes only