» » »

Unsigned, Painful Witness Tabs (ver.1)

Artists:  A B C D E F G H I J K L M N O P Q R S T U V W X Y Z # 

Painful Witness Tabs (ver.1)

Unsigned Tabs
 Rating:
4/5 (4 votes)
Painful Witness lessons Tabs too difficult? Try these video lessons and learn fast
                This is a great song by a great band called Insanity. There are two guitarists who play very similar things. This is simple yet amazing. I tabbed this perfectly.
Intro
E-------------------------------------------------------------
B-------------------------------------------------------------
G-------------------------------------------------------------
D-99109-7777-5555-4444-5555-7777-9999-10x4-9999-7777-5555-4444
A-77 87-5555-3333-2222-3333-5555-7777-8888-7777-5555-3333-2222
E-------------------------------------------------------------

E----------------------
B----------------------
G----------------------
D-5555-7777-99109------(x2)
A-3333-5555-77 87------
E----------------------

Verse (guitar One)
E----------------------------------------------
B----------------------------------------------
G----------------------------------------------
D----------------------------------------------
A--2-2-3-3-4-4-3-3-(x4)-------22-33-44-33--(x4)
E-0-0-1-1-2-2-1-1--(x4)-------00-11-22-11--(x4)

Verse (guitar Two)
He plays nothing for the first part but joins in with the second part.
E----------------------------------------------------------------
B----------------------------------------------------------------
G----------------------------------------------------------------
D--77----------(x4)----------------------------------------------
A--55-77-99-77-(x4)----------------------------------------------
E-----55-77-55-(x4)----------------------------------------------

The chorus is the same as the intro but only played once. 
Here is the order:
Intro
Verse
Chorus
Verse
Solo (just one guitar playing the intro)
Verse
Chorus
Verse
Chorus
This is easy to play and it sounds great. There is also a great bass riff that goes with it but I haven't tabbed that. I hope you enjoy. I spent ages on this so please dont rate this lowly just for the sake of it.
            
Submit corrections

comments powered by Disqus
↑ Back to top | Unsigned Tabs for Painful Witness. Lyrics for acoustic guitar and electric guitar. Tablatures and chords are parodies/interpretations of the original songs. You may use it for private study, scholarship, research or language learning purposes only