>
 >
Oxygen - Bleeding

Oxygen - Bleeding Guitar Tabs

Unsigned - Oxygen - Bleeding chords, tabs, tablatures, lyrics

Guitar lessons | Add/correct | Request | Top 50 tabs Artists:  A B C D E F G H I J K L M N O P Q R S T U V W X Y Z 0-9

Oxygen - Bleeding Guitar Tabs – Unsigned

CD, Sheet music, Poster

Do you like Oxygen - Bleeding? Share with your friends now
Tabs
this is my own music so dont steal, learn if you want to. My band is on the verge of being signed, look out or either Oxygen or Element



|---------0------|---------0------|---------0------|---------0------|
|-----0-------0--|-----0-------0--|-----0-------0--|-----0-------0--|
|---0---0---0-0-|---0---0---0--0-|---0---0---0--0-|---0---0---0--0-|
|----------------|----------------|-0--------------|-0--------------|
|-2--------------|-2--------------|----------------|----------------|
|----------------|----------------|----------------|----------------|

|---------0------|---------0------|---------2------|---------2------|
|-----0-------0--|-----0-------0--|-----0-------0--|-----0-------0--|
|---0---0---0--0-|---0---0---0--0-|---0---0---0--0-|---0---0---0--0-|
|-2--------------|-2--------------|-2--------------|-2--------------|
|----------------|----------------|----------------|----------------|
|----------------|----------------|----------------|----------------|

|---------0------|---------0------|---------0------|---------0------|
|-----0-------0--|-----0-------0--|-----0-------0--|-----0-------0--|
|---0---0---0--0-|---0---0---0--0-|---0---0---0--0-|---0---0---0--0-|
|-2--------------|-0--------------|----------------|----------------|
|----------------|----------------|-3--------------|-2--------------|
|----------------|----------------|----------------|----------------|





Comments


Popular Unsigned tabs & chords
Caution 8e8 - What You Do Bass Tabs
Celcius - As I Am Bass Tabs
The - Sweet Tea Bass Tabs
The Last Good Name - Bringing It Back Bass Tabs
Anal Cornslaw- Titys And A Bong Tabs
Dismembered - One Tabs
Five Minutes To Freedom - When Im Gone Tabs
Fraser Rix- Duno The Name Yet Tabs
In The Line Of Fire - Sorry Tabs
Kevin And Friends - America Sucks Tabs


Song lyrics



↑ Back to top | Tablatures and chords are parodies/interpretations of the original songs. You may use it for private study, scholarship, research or language learning purposes only
© 2014 AZChords.com Contact us | Privacy policy | DMCA | Add/correct tabs | Request tabs | Top 50 tabs