» » »

Oxygen - Bleeding Tabs (ver.1)

Artists:  A B C D E F G H I J K L M N O P Q R S T U V W X Y Z # 

Oxygen - Bleeding Tabs (ver.1)

Unsigned
Rating:
0/5 (0 votes)

Hard to play? Try these video lessons and learn fast.
                this is my own music so dont steal, learn if you want to. My band is on the verge of being signed, look out or either Oxygen or Element



|---------0------|---------0------|---------0------|---------0------|
|-----0-------0--|-----0-------0--|-----0-------0--|-----0-------0--|
|---0---0---0—-0-|---0---0---0--0-|---0---0---0--0-|---0---0---0--0-|
|----------------|----------------|-0--------------|-0--------------|
|-2--------------|-2--------------|----------------|----------------|
|----------------|----------------|----------------|----------------|

|---------0------|---------0------|---------2------|---------2------|
|-----0-------0--|-----0-------0--|-----0-------0--|-----0-------0--|
|---0---0---0--0-|---0---0---0--0-|---0---0---0--0-|---0---0---0--0-|
|-2--------------|-2--------------|-2--------------|-2--------------|
|----------------|----------------|----------------|----------------|
|----------------|----------------|----------------|----------------|

|---------0------|---------0------|---------0------|---------0------|
|-----0-------0--|-----0-------0--|-----0-------0--|-----0-------0--|
|---0---0---0--0-|---0---0---0--0-|---0---0---0--0-|---0---0---0--0-|
|-2--------------|-0--------------|----------------|----------------|
|----------------|----------------|-3--------------|-2--------------|
|----------------|----------------|----------------|----------------|
            
Hard to play? Try these video lessons and learn fast. | Correct




comments powered by Disqus
↑ Back to top | Tablatures and chords are parodies/interpretations of the original songs. You may use it for private study, scholarship, research or language learning purposes only