» » »

Unsigned, O.V.S.A - Adolescent Teenagers Bass tabs (ver.1)

Artists:  A B C D E F G H I J K L M N O P Q R S T U V W X Y Z # 

O.V.S.A - Adolescent Teenagers Bass tabs (ver.1)

Unsigned Tabs
Rating:
0/5 (0 votes)
O.V.S.A - Adolescent Teenagers lessons Tabs too difficult? Try these video lessons and learn fast
                standard tuning

intro  wait a few seconds
G:-------------------------------------------------
D:-------------------------------------------------
A:---------------------4--------------------------
E--------------------------------------------------

pre-chorus
G:-------------------------------------------------
D:-------------------------------------------------
A:-------------------------------------------------
E:-------------------------66666666-44444444

chorus (4x)
G:--------------------------------------------------
D:--------------------------------------------------
A:44444444-66666666-------------------------
E:---------------------------6666666-22222222

verse (4x)
G:--------------------------------------------------
D:--------------------------------------------------
A:----------4--------------------------------------
E:------------------4------6------2----------------

bridge (4x)
G:---------------------------------------------------------
D:--------7---7---7---5---5--5---9---9---9---7---7-7-
A:-----55-55--5---33-33--3--77-77--77-55--55-5--
E:---------------------------------------------------------

(1x)
G:---------------------------------------------------------
D:77777777-55555555-99999999-77777777-----
A:55555555-33333333-77777777-55555555-----
E:---------------------------------------------------------


order:
intro(1x)
pre-chorus(1x)
chorus(4x)
verse(4x)
pre-chorus(1x)
chorus(4x)
verse(4x)
pre-chorus(1x)
chorus(4x)
bridge(4x)
other thing(1x)
chorus(4x)
let E:---2--- echo

hi, im tom
the bassist from the band o.v.s.a i hope you enjoy this any questions email at 
            

comments powered by Disqus
↑ Back to top | Unsigned Bass for O.V.S.A - Adolescent Teenagers. Lyrics for acoustic guitar and electric guitar. Tablatures and chords are parodies/interpretations of the original songs. You may use it for private study, scholarship, research or language learning purposes only