» » »

Unsigned, Outsiders Soul - Waltz Tabs (ver.1)

Artists:  A B C D E F G H I J K L M N O P Q R S T U V W X Y Z # 

Outsiders Soul - Waltz Tabs (ver.1)

Unsigned Tabs
 Rating:
4/5 (4 votes)
Outsiders Soul - Waltz lessons Tabs too difficult? Try these video lessons and learn fast
1
                Single: wandering spirits
\=slide
h=hammer
p=pull of
*=harmonic
z=rest
. =let ring
x= (hold over 10th fret)

Intro(x2)
-10-(x8)-10-(x8)-10-(x8)-10-(x2)-10-(x8)-----------------------------------------
-10------13------12-------9------10----------------------------------------------

fusion(x5)
-10-9-11-10----------------------------------------------------------------------
-10-9-11-10----------------------------------------------------------------------
-10-9-11-10----------------------------------------------------------------------
------------z-9------------------------------------------------------------------
------------z-9------------------------------------------------------------------
------------z-9------------------------------------------------------------------

(rest 6 counts)

prechorus(x2)
-10.--10.--10-10-10-10-z---9.---9.--9--9--9--9-z---8.--8.--8--8--8--8-z-x-x-------
--0.---0.---0--0--0--0-z---0.---0.--0--0--0--0-z---8.--8.--8--8--8--8-z-----x-x---
--9.---9.---9--9--9--9-z---8.---8.--8--8--8--8-z---8.--8.--8--8--8--8-z-----x-x---
-11.--11.--11-11-11-11-z--10.--10.-10-10-10-10-z--10.-10.-10-10-10-10-z-----x-x---

chorus1(x1)
-------------------------------------------------12.-12.-12.-12-12-12-12--------
-11.-11.-11.-11-11-11-11-10.-10.-10.-10-10-10-10--------------------------------

-------------------------12.-12.-12.-12-12-12-12-9.-9.-9.-9-9-9-9---------------
-17.-17.-17.-17-17-17-17--------------------------------------------------------

-12.-12.-12.-12-12-12-12-15.-15.-15.-15-15-15-15--------------------------------

wait 3 rests(12 guitar notes)

interlude(x2)
-0---------------0---------------0----------------------------------------------
---2-3-2-0h2h3p0---2-3-2-0h2h3p0---2-3-2-0h7h8-7-5-7-8.-5-7-8-7-8-10.-10-8-7-8-7-0-7

chorus2(x2)
-6.-6-6-6/2\5.-5-5-5/2\4.-4-4-4/2\10.-10-8-10-8-12-10-8-10--7-8-7-8-10-8-7-0.---

fusion(x2)

postfusion(x1)
----------------------
----------------------
----------------------
-9/8/7/6/5-5/4/3/2/1--
-9/8/7/6/5-5/4/3/2/1--
-9/8/7/6/5-5/4/3/2/1--

chorus1(x1)

chorus2(x2)

solo(x1)
-12----------------------------------------------------------------z------------
----13----12/4-----------------13--13--(x4)---13--15--(x6)-15.-15.-z-15.-15.----
-------12------------14-12-------12--14---------12--12-----12.-12.-z-12.-12.----
---------------15-12-----------------------------------------------z------------

chorus3(x2)
-9.-9--9.-9--9-9--10.-10-10.-10-10-10--8.-8--8.-8--8-8-10.-10-10.-10-10-10-x-x-x
-9.-9--9.-9--9-9--10.-10-10.-10-10-10--8.-8--8.-8--8-8-10.-10-10.-10-10-10-x-x-x
11.---11.---11----12.----12.----12----10.---10.---10---12.----12.----12----x-x-x
11.---11.---11----12.----12.----12----10.---10.---10---12.----12.----12---------

chorus2(x3)

outro[dim as you go](x1)
-0...............---------------------------------------------------------------
-0...............---------------------------------------------------------------
            
Submit corrections

comments powered by Disqus
↑ Back to top | Unsigned Tabs for Outsiders Soul - Waltz. Lyrics for acoustic guitar and electric guitar. 1 Tablatures and chords are parodies/interpretations of the original songs. You may use it for private study, scholarship, research or language learning purposes only