» » »

Outsiders Soul - Money Tabs (ver.1)

Artists:  A B C D E F G H I J K L M N O P Q R S T U V W X Y Z # 

Outsiders Soul - Money Tabs (ver.1)

Unsigned
Rating:
0/5 (0 votes)

Hard to play? Try these video lessons and learn fast.
                *=hold double length
/or\=slide
(#)=harmonic




chorus1(x4)
-9-99-999-7-77-777-5-55-555--7-777-------------------------------------------
-9-99-999-7-77-777-5-55-555--7-777-------------------------------------------
-9-99-999-7-77-777-5-55-555--7-777-------------------------------------------

chorus2(x3)
-9-99-999-7-77-777-6-66-666-5-55-555-----------------------------------------
-9-99-999-7-77-777-6-66-666-5-55-555-----------------------------------------
-9-99-999-7-77-777-6-66-666-5-55-555-----------------------------------------

wait 2 measures(8 notes)

solo(x1)                                                 soften more each time
-(12)---------(12)----(12)----------(12)----(12)------------0-0-0-0-h7/9--x10
-----(12)---------(12)------------------(12)---------------------------------
---------(12)*----------------(12)--------------(12)-------------------------
--------------------------(12)-----------------------------------------------

chorus1(x1)

interlude(x5)
-9---7---5---7---------------------------------------------------------------
--9---7---5---7--------------------------------------------------------------
---9---7---5---7-------------------------------------------------------------

chorus2(x3)

outro(x2) g  e  t    q  u  i  e  t (2nd time)
-9-9--9-9--7-7--7-7--5-5--5-5--7-7--7-7---------------------------------------
--9----9----7----7----5----5----7----7----------------------------------------
----9----9----7----7----5----5----7----7--------------------------------------
            
Hard to play? Try these video lessons and learn fast. | Correct




comments powered by Disqus
↑ Back to top | Tablatures and chords are parodies/interpretations of the original songs. You may use it for private study, scholarship, research or language learning purposes only