» » »

Only In Vows - Insane Bass tabs (ver.1)

Artists:  A B C D E F G H I J K L M N O P Q R S T U V W X Y Z # 

Only In Vows - Insane Bass tabs (ver.1)

Unsigned
Rating:
0/5 (0 votes)

Hard to play? Try these video lessons and learn fast.
                Ok, This an amazing song, so learn it!

Verse

--------------------------------------
-0-0-2-3--5-----0-0-2-3---------------
-------------------------3------------
--------------------------------------

Chorus

--------------------------------------
-0-0-2-3--5-----0-0-2-3---------------
-------------------------3------------
--------------------------------------

Verse

--------------------------------------
-0-0-2-3--5-----0-0-2-3---------------
-------------------------3------------
--------------------------------------

Brige

--------------------------------------
--------------------------------------
--------------------------------------
99999999-777777777-555555555-33333333-

fill

--------
--------
--------
-2-3-23-

chorus

--------------------------------------
-0-0-2-3--5-----0-0-2-3---------------
-------------------------3------------
--------------------------------------

Easy!
            
Hard to play? Try these video lessons and learn fast. | Correct




comments powered by Disqus
↑ Back to top | Tablatures and chords are parodies/interpretations of the original songs. You may use it for private study, scholarship, research or language learning purposes only