» » »

Unsigned, One Under - Destined To Fail Tabs (ver.1)

Artists:  A B C D E F G H I J K L M N O P Q R S T U V W X Y Z # 

One Under - Destined To Fail Tabs (ver.1)

Unsigned Tabs
 Rating:
4/5 (4 votes)
One Under - Destined To Fail lessons Tabs too difficult? Try these video lessons and learn fast
1
                oNe UnDeR – Destined to fail

Intro1

Guitar 1
E------------------------
B------------------------
G------------------------
D------------------------
A------------------------
E------------------------
A-0-3-2-0-3-2-0-3-------- x 3

E----------------------------
B----------------------------
G----------------------------
D----------------------------
A----------------------------
E----------------------------
A-0-3-2-0-0------------------

Intro 2/Chorus

Guitar 1
E------------------------                      ]
B------------------------                      |
G------------------------                      |
D------------------------                      |
A-0-3-2-0-3-2-0-3--------                      |
E-0-3-2-0-3-2-0-3--------                      |
A-0-3-2-0-3-2-0-3-------- x 3                  |
                                               |
E------------------------                     x4
B------------------------                      |
G------------------------                      |
D------------------------                      |
A-0-3-2-0-6-6------------                      |
E-0-3-2-0-6-6------------                      |
A-0-3-2-0-6-6------------                      ]

E------------------------
B------------------------
G------------------------
D------------------------
A-3-3-3-3-2-2-2-2--------
E-3-3-3-3-2-2-2-2--------
A-3-3-3-3-2-2-2-2-------- end of 4th

Guitar 2
E--------------------------
B--------------------------
G--------------------------
D--------------------------
A-7^8—7^8—7^8—-12-12-12-12-
E-7^8—7^8—7^8—-12-12-12-12-
A-7^8—7^8—7^8--12-12-12-12-

E------------------------
B------------------------
G------------------------
D------------------------
A-7^8—7^8—7^8—-5-5-5-5---
E-7^8—7^8—7^8—-5-5-5-5---
A-7^8—7^8—7^8--5-5-5-5--- 

Verse 1

Guitar 2
E------------------------
B------------------------
G------------------------
D------------------------
A------------------------
E------------------------
A-2-2--2-2-2-3-3--------- x 4

E------------------------
B------------------------
G------------------------
D------------------------
A-2-2-2-3-2-3------------
E-2-2-2-3-2-3------------
A-2-2-2-3-2-3------------ x 8

Guitar 1
E------------------------
B------------------------
G------------------------
D-------4----------------
A-2-2-2---2-3------------
E-2-2-2---2-3------------
A-2-2-2---2-3------------ x 3

E------------------------
B------------------------
G------------------------
D-----2-2-3-3------------
A-2-2-2-2-3-3------------
E-2-2--------------------
A-2-2--------------------

E------------------------
B------------------------
G------------------------
D-------4----------------
A-2-2-2---2-3------------
E-2-2-2---2-3------------
A-2-2-2---2-3------------ x 3

E------------------------
B------------------------
G------------------------
D-----2-2-3-3------------
A-2-2-2-2-3-3------------
E-2-2--------------------
A-2-2--------------------

Chorus

Verse

Break

Guitar2
E------------------------
B------------------------
G------------------------
D------------------------
A------------------------
E-0-0-0-0-0-0-0-0-1-1----
A------------------------ x 4

E------------------------
B------------------------
G------------------------
D------------------------
A------------------------
E------------------------
A-0-0-0-1-0-1-0-1-1-1---- x 4

Guitar1&2
E------------------------
B------------------------
G------------------------
D------------------------
A-1-1-1-1-1-2------------
E-1-1-1-1-1-2------------
A-1-1-1-1-1-2------------ x3

E------------------------
B------------------------
G------------------------
D------------------------
A-1-1-2-1-1-2------------
E-1-1-2-1-1-2------------
A-1-1-2-1-1-2------------

E------------------------
B------------------------
G------------------------
D------------------------
A-1-1-1-1-1-2------------
E-1-1-1-1-1-2------------
A-1-1-1-1-1-2------------ x3

E------------------------
B------------------------
G------------------------
D------------------------
A-1-1-2-1-1-2------------
E-1-1-2-1-1-2------------
A-1-1-2-1-1-2------------

E------------------------
B------------------------
G------------------------
D------------------------
A-1-1-1-1-1/2-2-2-2\-----
E-1-1-1-1-1/2-2-2-2\-----
A-1-1-1-1-1/2-2-2-2\----- x3

E------------------------
B------------------------
G------------------------
D------------------------
A-1-1-2-1-1-2------------
E-1-1-2-1-1-2------------
A-1-1-2-1-1-2------------

E------------------------
B------------------------
G------------------------
D------------------------
A-1-1-1-1-1/2-2-2-2\-----
E-1-1-1-1-1/2-2-2-2\-----
A-1-1-1-1-1/2-2-2-2\----- x3

E----------------------------
B----------------------------
G----------------------------
D----------------------------
A-1-1-2-1-1-2-1-1-2-1-1-2--2-
E-1-1-2-1-1-2-1-1-2-1-1-2--2-
A-1-1-2-1-1-2-1-1-2-1-1-2--2-

Bridge

Guitar 2
E-15-15--15-15--15-15—15*
B------------------------
G------------------------
D------------------------
A------------------------
E------------------------
A------------------------ repeated throughout

Guitar 1
E------------------------
B------------------------
G------------------------
D------------------------
A-0-0-8-0-0-7-0-0-5-0----      -3-3-3-3-3-3-3-5
E------------------------      ---------------3 on 3rd time
A------------------------ x 3

E-------------------------
B-------------------------
G-------------------------
D-----10-----9-----7------      -5-5-5-5-5-5-5
A-0-0-8--0-0-7-0-0-5-0----      -3-3-3-3-3-3-3-5
E-------------------------      ---------------3 on 3rd time
A------------------------- x 3

E------------------------
B------------------------
G------------------------
D------------------------
A-0-0-8-0-0-7-0-0-5-0----      -3-3-3-3-3-3-3-5
E------------------------      ---------------3 on 3rd time
A------------------------ x 3

E-------------------------
B-------------------------
G-------------------------
D-----10-----9-----7------      -5-5-5-5-5-5-5
A-0-0-8--0-0-7-0-0-5-0----      -3-3-3-3-3-3-3-5
E-------------------------      ---------------3 on 3rd time
A------------------------- x 3

Chorus

Outro

Guitar 1
E----------------------------
B----------------------------
G----------------------------
D----------------------------
A-3-0-0-2-0-0-3-0-0-2/7-7-7--          3-0-0-2-0-0-0-
E-3-0-0-2-0-0-3-0-0-2/7-7-7--          3-0-0-2-0-0-0-
A-3-0-0-2-0-0-3-0-0-2/7-7-7—- x 3 then 3-0-0-2-0-0-0-

Guitar 2
E----------------------------
B----------------------------
G----------------------------
D----------------------------
A-2-0-0-3-0-0-2-0-0-3/7-7-7--          2-0-0-3-0-0-0-
E-2-0-0-3-0-0-2-0-0-3/7-7-7--          2-0-0-3-0-0-0-
A-2-0-0-3-0-0-2-0-0-3/7-7-7—- x 3 then 2-0-0-3-0-0-0-
            
Submit corrections

comments powered by Disqus
↑ Back to top | Unsigned Tabs for One Under - Destined To Fail. Lyrics for acoustic guitar and electric guitar. 1 Tablatures and chords are parodies/interpretations of the original songs. You may use it for private study, scholarship, research or language learning purposes only