» » »

One Tuning - Hard Way Tabs (ver.1)

Artists:  A B C D E F G H I J K L M N O P Q R S T U V W X Y Z # 

One Tuning - Hard Way Tabs (ver.1)

Unsigned
Rating:
0/5 (0 votes)

Hard to play? Try these video lessons and learn fast.
                

Standard tuning


Heavy distortion


INTRO

e|-----------------|-----------------|-----------------|-----------------|
B|-----------------|-----------------|-----------------|-----------------|
G|-----4--4--------|-----4--4--------|-----4--4--------|-4---4---3-0-----|
D|-----4--4----5-4-|-----4--4----5-7-|-----4--4----5---|-4---4---3-0-----|
A|---0---------3-2-|---0---------3-5-|---0---------3---|-----------------|
E|-0-------0-0-----|-0-------0-0-----|-0-------0-0---0-|-----------------|
   PM	   PM.|	     PM	     PM.|      PM      PM.|


CHORUS

e|-----------------|-----------------|-----------------|-----------------|
B|-----------------|-----------------|-----------------|-----------------|
G|-----4--4----3---|-----4--4----5-5-|-----4--4----3---|-----4--4----0---|
D|---4---4---3---3-|---4---4-----5-5-|---4---4---3---3-|---4---4-3-0---0-|
A|-----------------|-----------------|-----------------|-----------------|
E|-0-------0-------|-0-------0-0-----|-0-------0-------|-0---------------|
   PM      PM        PM      PM.|      PM      PM        PM




INTERLUDE

e|-----------------|-----------------|-----------------|-----------------|
B|-----------------|-----------------|-----------------|-----------------|
G|-4---4--33-5---5-|-4---4---3-0-----|-4---4--33-5-5-5-|-4---4---3-0-----|
D|-4---4--33-5---5-|-4---4---3-0-----|-4---4--33-5-5-5-|-4---4---3-0-----|
A|-----------------|-----------------|-----------------|-----------------|
E|-----------------|-----------------|-----------------|-----------------|


REFRAIN

e|-----------------|-----------------|-----------------|-----------------|
B|-----------------|-----------------|-----------------|-----------------|
G|-----4--4--------|-----4--4--------|-----4--4--------|-4---4---3-0-----|
D|-----4--4----5-4-|-----4--4----5-7-|-----4--4----5---|-4---4---3-0-----|
A|---0---------3-2-|---0---------3-5-|---0---------3---|-----------------|
E|-0-------0-0-----|-0-------0-0-----|-0-------0-0---0-|-----------------|
   PM	   PM.|	     PM	     PM.|      PM      PM.|

1. Up the mountain. Through the ivy.   Over hot coal.    Go the hard way!
-  Down the steep cliff. Under old bridge. Don't look back now. Just go the hard way!



INTRO
CHORUS x2
INTERLUDE
REFRAIN
CHORUS x2
INTERLUDE
REFRAIN
REFRAIN (without text)
            
Hard to play? Try these video lessons and learn fast. | Correct




comments powered by Disqus
↑ Back to top | Tablatures and chords are parodies/interpretations of the original songs. You may use it for private study, scholarship, research or language learning purposes only