>
 >
One Mile Down - The Anthem

One Mile Down - The Anthem Guitar Tabs

Unsigned - One Mile Down - The Anthem chords, tabs, tablatures, lyrics

Guitar lessons | Add/correct | Request | Top 50 tabs Artists:  A B C D E F G H I J K L M N O P Q R S T U V W X Y Z 0-9

One Mile Down - The Anthem Guitar Tabs – Unsigned

CD, Sheet music, Poster

Do you like One Mile Down - The Anthem? Share with your friends now
Tabs
This song is normal tuning

Intro: Moderate speed     x2

E-------------------------------------------------------------------------------------------------
B-------------------------------------------------------------------------------------------------
G-------------------------------------------------------------------------------------------------
D---------2---3---2-------2---3---2--------2---3-------2---3---2--------2----3---2------2---3---2-
AŚ3-3---3---3---3---3---3---3---3---3---0-0---0---0--0---0---0---0--------------------------------
E-------------------------------------------------------------------3-3---3---3---3--3---3---3---3

E-----------------------------------
B-----------------------------------
G-----------------------------------
D--------2---3--2-------2---3---2---
A-----------------------------------
E---1-1----1---1---1--1---1---1---1-

Pre-verse: x2

E------------------------------------------------------------------------------------
B-------------------------3--3-3-----------------------------------------------------
G---5--5--5---5-5--5-5-5--2--2-2--2--2--2---2----------------------------------------
D---5--5--5---5-5--5-5-5--0--0-0--2--2--2---2--3--3--3---3-3--3-3-3--3-3-------------
A---3--3--3---3-3--3-3-3----------0--0--0---0--3--3--3---3-3--3-3-3--3-3-------------
E----------------------------------------------1--1--1---1-1--1-1-1--1-1-------------

Verse: x4 Palm Mute 

E------------------------------------------------------------------------------------
B------------------------------------------------------------------------------------
G-------------------------2--2-2-----------------------------------------------------
D---5--5--5---5-5--5-5-5--0--0-0----2--2--2---2--------------------------------------
A---3--3--3---3-3--3-3-3----------- 0--0--0---0--3--3--3---3-3--3-3-3--3-3-----------
E------------------------------------------------1--1--1---1-1--1-1-1--1-1-----------

Chorus: x2

E-----------------------------------------------------------------------------------------
B---5--5--5---5-5--5-5-5-5--5-5--5--5--5---5-5--5-5-5-5--5-5--3--3--3---3-3--3-3-3-3--3-3-
G---5--5--5---5-5--5-5-5-5--5-5--5--5--5---5-5--5-5-5-5--5-5--2--2--2---2-2--2-2-2-2--2-2-
D---5--5--5---5-5--5-5-5-5--5-5--5--5--5---5-5--5-5-5-5--5-5--2--2--2---2-2--2-2-2-2--2-2-
A---3--3--3---3-3--3-3-3-3--3-3--3--3--3---3-3--3-3-3-3--3-3--0--0--0---0-0--0-0-0-0--0-0-
E---------------------------------------------------------------3--3-3--------------------


E------------------------------------------------------------------------------------
B------------------------------------------------------------------------------------
G------------------------------------------------------------------------------------
D-3--3--3--3-3--3-3-3-3--3-3---------------------------------------------------------
A-3--3--3--3-3--3-3-3-3--3-3---------------------------------------------------------
E-1--1--1--1-1--1-1-1-1--1-1---------------------------------------------------------

Bridge: Extremely Fast x2

E------------------------------------------------------------------------------------
B------------------------------------------------------------------------------------
G------------------------------------------------------------------------------------
D--------2---2---2---0-0-2-0-2-0-2-0----------2-0-2-0-2-0------2-0-2-0-2-0-----------
A---3-3----3---3---3---------------------0-0-----------------------------------------
E-----------------------------------------------------------1-1----------------------

Bridge continued: x2

E------------------------------------------------------------------------------------
B------------------------------------------------------------------------------------
G---------------------------------------------------------------------------5--4--5--
D--------2---2---2---000--3-22222222222--333222000-----------2---2-3--3-5------------
A---3-3---3----3---3----------------------------------333333---3-----3---------------
E------------------------------------------------------------------------------------

Intro: No distortion
Pre-Verse: Distortion
Verse: Palm Mute, Distortion 
Chorus: Distortion
Pre-Verse: Distortion
Verse: Palm Mute, Distortion
Chorus: Distortion
Bridge: Distortion
Chorus: Distortion
Intro: No distortion
End on C chord: No Distortion

	This is pretty fast. The song is perfect on how it is to be played. This is a good song. Hope you guys like it.





Comments


Popular Unsigned tabs & chords
Candid - Mellow Bass Tabs
Mod - Friends Bass Tabs
Slap Happy - Thinking Of You Bass Tabs
The Rad Tomcats - Free Me Bass Tabs
Time For Nothing - Leaving Home Bass Tabs
Atomic Anatomy-Brick Face Tabs
Bliss-Its Over Tabs
Disposable Heroes - Wretch Tabs
Instruments Playing People - The... Tabs
Jim And Jon - Ravioli Tabs


Song lyrics



↑ Back to top | Tablatures and chords are parodies/interpretations of the original songs. You may use it for private study, scholarship, research or language learning purposes only
© 2014 AZChords.com Contact us | Privacy policy | DMCA | Add/correct tabs | Request tabs | Top 50 tabs