» » »

Unsigned, One Man Show - Fung Shui Tabs (ver.1)

Artists:  A B C D E F G H I J K L M N O P Q R S T U V W X Y Z # 

One Man Show - Fung Shui Tabs (ver.1)

Unsigned Tabs
 Rating:
4/5 (4 votes)
One Man Show - Fung Shui lessons Tabs too difficult? Try these video lessons and learn fast
                one man show              lance lipskey
fung shui
GDGCFAD

d:---------------------------------------------------------------------------
a:---------------------------------------------------------------------------
f:----9-9-9-----------10-10-10-------------9-9-9--------7-------7-5-5--------
c:--7-------7-------7----------7--------10-------10-----9-9-9-9-9/7-7---(x3)-
g:7-----------7-7-7--------------7-7-7--------------7-7-7-7-7-7-7/5-5--------
D:---------------------------------------------------------------------------
G:---(clean)-----------------------------------------------------------------

d:---------------------------------------------------------------------------
a:---------------------------------------------------------------------------
f:----9-9-9-----------10-10-10---12-10------9-9-9--------7-------7-5-5-------
c:--7-------7-------7----------7---------10-------10-----9-9-9-9-9/7-7-------
g:7-----------7-7-7--------------------7-------------7-7-7-7-7-7-7/5-5-------
D:---------------------------------------------------------------------------
G:---(clean)-----------------------------------------------------------------

d:-(chorus)--------------------------------------------
a:-----------------------------------------------------
f:-----------------------------------------------------
c:-----------------------------------------------------
g:7--7-7-7-7-7-7-7-8--8-8-8-8-8-8-8--7-7-7/5xx5/3xx3/2-
D:7--7-7-7-7-7-7-7-8--8-8-8-8-8-8-8--7-7-7/5xx5/3xx3/2-
G:7--7-7-7-7-7-7-7-8--8-8-8-8-8-8-8--7-7-7/5xx5/3xx3/2-

d:---------------------------------------------------
a:-(step-on-it)--------------------------------------
f:---------------------------------------------------
c:---------------------------^-----------------------
g:7--7-7-7-7-7-7-7-8--8-8-8-10-----7-7-7/5xx5/3xx3/2-
D:7--7-7-7-7-7-7-7-8--8-8-8-10-----7-7-7/5xx5/3xx3/2-
G:7--7-7-7-7-7-7-7-8--8-8-8-10-----7-7-7/5xx5/3xx3/2-

d:-(interlude)--------------------------------------------------------------
a:-(-p/m-)-^------(---p/m---)-^------(--p/m---)^-------(--p/m--)------------
f:----9-9-9-----------10-10-10------------9-9-9--------7-------7-5-5--------
c:--7-------7-------7----------7-------10-------10-----9-9-9-9-9/7-7--------
g:7---------------7------------------7-----------------7-7-7-7-7/5-5--------
D:--------------------------------------------------------------------------
G:--(overdriven)------------------------------------------------------------

d:--------------------------------------------------------------------------
a:(-p/m-)-^------(---p/m---)-^-----------(--p/m---)^-------(--p/m--)--------
f:----9-9-9-----------10-10-10---12-10---------9-9-9--------7-------7-5-5---
c:--7-------7-------7----------7------------10-------10-----9-9-9-9-9/7-7---
g:7---------------7-----------------------7-----------------7-7-7-7-7/5-5---
D:--------------------------------------------------------------------------
G:--(overdriven)------------------------------------------------------------

                 hope this brought a new sound to your ears ...if you
            
Submit corrections

comments powered by Disqus
↑ Back to top | Unsigned Tabs for One Man Show - Fung Shui. Lyrics for acoustic guitar and electric guitar. Tablatures and chords are parodies/interpretations of the original songs. You may use it for private study, scholarship, research or language learning purposes only